  0
SECTION
  2
HEADER
  0
ENDSEC
  0
SECTION
  2
TABLES
  0
TABLE
  2
LTYPE
 70
     1
  0
LTYPE
  2
CONTINUOUS
 70
    64
  3
Ausgezogene Linie
 72
    65
 73
     0
 40
0.0
  0
ENDTAB
  0
TABLE
  2
LAYER
 70
     3
  0
LAYER
  2
Kontur
 70
    64
 62
     7
  6
CONTINUOUS
  0
LAYER
  2
Gravur
 70
    64
 62
     7
  6
CONTINUOUS
  0
LAYER
  2
Bezugspunkte
 70
    64
 62
     1
  6
CONTINUOUS
  0
ENDTAB
  0
TABLE
  2
STYLE
 70
     1
  0
STYLE
  2
TXT
 70
    64
 40
0.0
 41
1.0
 50
0.0
 71
     0
 42
3.500000
  3
TXT
  0
ENDTAB
  0
ENDSEC
  0
SECTION
  2
BLOCKS
  0
ENDSEC
  0
SECTION
  2
ENTITIES
  0
LINE
  8
Kontur
 62
   7
 39
0.100
  6
CONTINUOUS
 10
25.23000
 20
128.40000
 30
 0
 11
0.00000
 21
128.40000
  0
LINE
  8
Kontur
 62
   7
 39
0.100
  6
CONTINUOUS
 10
0.00000
 20
128.40000
 30
 0
 11
0.00000
 21
128.40000
  0
LINE
  8
Kontur
 62
   7
 39
0.100
  6
CONTINUOUS
 10
0.00000
 20
128.40000
 30
 0
 11
0.00000
 21
0.00000
  0
LINE
  8
Kontur
 62
   7
 39
0.100
  6
CONTINUOUS
 10
0.00000
 20
0.00000
 30
 0
 11
0.00000
 21
0.00000
  0
LINE
  8
Kontur
 62
   7
 39
0.100
  6
CONTINUOUS
 10
0.00000
 20
0.00000
 30
 0
 11
50.46000
 21
0.00000
  0
LINE
  8
Kontur
 62
   7
 39
0.100
  6
CONTINUOUS
 10
50.46000
 20
0.00000
 30
 0
 11
50.46000
 21
0.00000
  0
LINE
  8
Kontur
 62
   7
 39
0.100
  6
CONTINUOUS
 10
50.46000
 20
0.00000
 30
 0
 11
50.46000
 21
128.40000
  0
LINE
  8
Kontur
 62
   7
 39
0.100
  6
CONTINUOUS
 10
50.46000
 20
128.40000
 30
 0
 11
50.46000
 21
128.40000
  0
LINE
  8
Kontur
 62
   7
 39
0.100
  6
CONTINUOUS
 10
50.46000
 20
128.40000
 30
 0
 11
25.23000
 21
128.40000
  0
LINE
  8
Gravur
 62
   7
 39
0.200
  6
CONTINUOUS
 10
13.12600
 20
118.31200
 30
 0
 11
16.77400
 21
118.31200
  0
LINE
  8
Gravur
 62
   7
 39
0.200
  6
CONTINUOUS
 10
16.77400
 20
118.31200
 30
 0
 11
16.77400
 21
117.60800
  0
LINE
  8
Gravur
 62
   7
 39
0.200
  6
CONTINUOUS
 10
16.77400
 20
117.60800
 30
 0
 11
15.39800
 21
117.60800
  0
LINE
  8
Gravur
 62
   7
 39
0.200
  6
CONTINUOUS
 10
15.39800
 20
117.60800
 30
 0
 11
15.39800
 21
115.11200
  0
LINE
  8
Gravur
 62
   7
 39
0.200
  6
CONTINUOUS
 10
15.39800
 20
115.11200
 30
 0
 11
14.50200
 21
115.11200
  0
LINE
  8
Gravur
 62
   7
 39
0.200
  6
CONTINUOUS
 10
14.50200
 20
115.11200
 30
 0
 11
14.50200
 21
117.60800
  0
LINE
  8
Gravur
 62
   7
 39
0.200
  6
CONTINUOUS
 10
14.50200
 20
117.60800
 30
 0
 11
13.12600
 21
117.60800
  0
LINE
  8
Gravur
 62
   7
 39
0.200
  6
CONTINUOUS
 10
13.12600
 20
117.60800
 30
 0
 11
13.12600
 21
118.31200
  0
LINE
  8
Gravur
 62
   7
 39
0.200
  6
CONTINUOUS
 10
18.63000
 20
117.60800
 30
 0
 11
18.63000
 21
116.61600
  0
LINE
  8
Gravur
 62
   7
 39
0.200
  6
CONTINUOUS
 10
18.63000
 20
116.61600
 30
 0
 11
20.29400
 21
116.61600
  0
ARC
  8
Gravur
 62
   7
 39
0.200
  6
CONTINUOUS
 10
20.29601
 20
116.99799
 30
 0
 40
0.38200
 50
-90.30077
 51
0.30077
  0
LINE
  8
Gravur
 62
   7
 39
0.200
  6
CONTINUOUS
 10
20.67800
 20
117.00000
 30
 0
 11
20.67800
 21
117.22400
  0
ARC
  8
Gravur
 62
   7
 39
0.200
  6
CONTINUOUS
 10
20.29601
 20
117.22601
 30
 0
 40
0.38200
 50
-0.30077
 51
90.30077
  0
LINE
  8
Gravur
 62
   7
 39
0.200
  6
CONTINUOUS
 10
20.29400
 20
117.60800
 30
 0
 11
18.63000
 21
117.60800
  0
LINE
  8
Gravur
 62
   7
 39
0.200
  6
CONTINUOUS
 10
17.73400
 20
118.31200
 30
 0
 11
17.73400
 21
115.11200
  0
LINE
  8
Gravur
 62
   7
 39
0.200
  6
CONTINUOUS
 10
17.73400
 20
115.11200
 30
 0
 11
18.63000
 21
115.11200
  0
LINE
  8
Gravur
 62
   7
 39
0.200
  6
CONTINUOUS
 10
18.63000
 20
115.11200
 30
 0
 11
18.63000
 21
115.91200
  0
LINE
  8
Gravur
 62
   7
 39
0.200
  6
CONTINUOUS
 10
18.63000
 20
115.91200
 30
 0
 11
20.29400
 21
115.91200
  0
ARC
  8
Gravur
 62
   7
 39
0.200
  6
CONTINUOUS
 10
20.29601
 20
115.53001
 30
 0
 40
0.38200
 50
359.69923
 51
90.30077
  0
LINE
  8
Gravur
 62
   7
 39
0.200
  6
CONTINUOUS
 10
20.67800
 20
115.52800
 30
 0
 11
20.67800
 21
115.11200
  0
LINE
  8
Gravur
 62
   7
 39
0.200
  6
CONTINUOUS
 10
20.67800
 20
115.11200
 30
 0
 11
21.57400
 21
115.11200
  0
LINE
  8
Gravur
 62
   7
 39
0.200
  6
CONTINUOUS
 10
21.57400
 20
115.11200
 30
 0
 11
21.57400
 21
115.62400
  0
ARC
  8
Gravur
 62
   7
 39
0.200
  6
CONTINUOUS
 10
20.87100
 20
115.62290
 30
 0
 40
0.70300
 50
0.09004
 51
60.04713
  0
ARC
  8
Gravur
 62
   7
 39
0.200
  6
CONTINUOUS
 10
20.87100
 20
116.84110
 30
 0
 40
0.70300
 50
-60.04713
 51
-0.09004
  0
LINE
  8
Gravur
 62
   7
 39
0.200
  6
CONTINUOUS
 10
21.57400
 20
116.84000
 30
 0
 11
21.57400
 21
117.60800
  0
ARC
  8
Gravur
 62
   7
 39
0.200
  6
CONTINUOUS
 10
20.87401
 20
117.61201
 30
 0
 40
0.70000
 50
-0.32835
 51
90.32835
  0
LINE
  8
Gravur
 62
   7
 39
0.200
  6
CONTINUOUS
 10
20.87000
 20
118.31200
 30
 0
 11
17.73400
 21
118.31200
  0
LINE
  8
Gravur
 62
   7
 39
0.200
  6
CONTINUOUS
 10
22.53400
 20
118.31200
 30
 0
 11
22.53400
 21
115.11200
  0
LINE
  8
Gravur
 62
   7
 39
0.200
  6
CONTINUOUS
 10
22.53400
 20
115.11200
 30
 0
 11
23.43000
 21
115.11200
  0
LINE
  8
Gravur
 62
   7
 39
0.200
  6
CONTINUOUS
 10
23.43000
 20
115.11200
 30
 0
 11
23.43000
 21
117.60800
  0
LINE
  8
Gravur
 62
   7
 39
0.200
  6
CONTINUOUS
 10
23.43000
 20
117.60800
 30
 0
 11
23.49400
 21
117.60800
  0
LINE
  8
Gravur
 62
   7
 39
0.200
  6
CONTINUOUS
 10
23.49400
 20
117.60800
 30
 0
 11
24.61400
 21
115.11200
  0
LINE
  8
Gravur
 62
   7
 39
0.200
  6
CONTINUOUS
 10
24.61400
 20
115.11200
 30
 0
 11
25.57400
 21
115.11200
  0
LINE
  8
Gravur
 62
   7
 39
0.200
  6
CONTINUOUS
 10
25.57400
 20
115.11200
 30
 0
 11
26.69400
 21
117.60800
  0
LINE
  8
Gravur
 62
   7
 39
0.200
  6
CONTINUOUS
 10
26.69400
 20
117.60800
 30
 0
 11
26.75800
 21
117.60800
  0
LINE
  8
Gravur
 62
   7
 39
0.200
  6
CONTINUOUS
 10
26.75800
 20
117.60800
 30
 0
 11
26.75800
 21
115.11200
  0
LINE
  8
Gravur
 62
   7
 39
0.200
  6
CONTINUOUS
 10
26.75800
 20
115.11200
 30
 0
 11
27.65400
 21
115.11200
  0
LINE
  8
Gravur
 62
   7
 39
0.200
  6
CONTINUOUS
 10
27.65400
 20
115.11200
 30
 0
 11
27.65400
 21
118.31200
  0
LINE
  8
Gravur
 62
   7
 39
0.200
  6
CONTINUOUS
 10
27.65400
 20
118.31200
 30
 0
 11
26.11800
 21
118.31200
  0
LINE
  8
Gravur
 62
   7
 39
0.200
  6
CONTINUOUS
 10
26.11800
 20
118.31200
 30
 0
 11
25.09400
 21
116.04000
  0
LINE
  8
Gravur
 62
   7
 39
0.200
  6
CONTINUOUS
 10
25.09400
 20
116.04000
 30
 0
 11
24.07000
 21
118.31200
  0
LINE
  8
Gravur
 62
   7
 39
0.200
  6
CONTINUOUS
 10
24.07000
 20
118.31200
 30
 0
 11
22.53400
 21
118.31200
  0
LINE
  8
Gravur
 62
   7
 39
0.200
  6
CONTINUOUS
 10
29.51000
 20
116.07200
 30
 0
 11
28.61400
 21
116.07200
  0
LINE
  8
Gravur
 62
   7
 39
0.200
  6
CONTINUOUS
 10
28.61400
 20
116.07200
 30
 0
 11
28.61400
 21
115.81600
  0
ARC
  8
Gravur
 62
   7
 39
0.200
  6
CONTINUOUS
 10
29.30479
 20
115.83313
 30
 0
 40
0.69100
 50
-178.57940
 51
-94.21497
  0
ARC
  8
Gravur
 62
   7
 39
0.200
  6
CONTINUOUS
 10
30.53400
 20
128.66053
 30
 0
 40
13.57700
 50
-95.40971
 51
-84.59029
  0
ARC
  8
Gravur
 62
   7
 39
0.200
  6
CONTINUOUS
 10
31.76321
 20
115.83313
 30
 0
 40
0.69100
 50
-85.78503
 51
-1.42060
  0
LINE
  8
Gravur
 62
   7
 39
0.200
  6
CONTINUOUS
 10
32.45400
 20
115.81600
 30
 0
 11
32.45400
 21
116.32800
  0
ARC
  8
Gravur
 62
   7
 39
0.200
  6
CONTINUOUS
 10
31.75000
 20
116.32873
 30
 0
 40
0.70400
 50
-0.05922
 51
87.39478
  0
LINE
  8
Gravur
 62
   7
 39
0.200
  6
CONTINUOUS
 10
31.78200
 20
117.03200
 30
 0
 11
29.76600
 21
117.09600
  0
ARC
  8
Gravur
 62
   7
 39
0.200
  6
CONTINUOUS
 10
29.76600
 20
117.35200
 30
 0
 40
0.25600
 50
90.00000
 51
-90.00000
  0
LINE
  8
Gravur
 62
   7
 39
0.200
  6
CONTINUOUS
 10
29.76600
 20
117.60800
 30
 0
 11
31.30200
 21
117.60800
  0
ARC
  8
Gravur
 62
   7
 39
0.200
  6
CONTINUOUS
 10
31.30300
 20
117.35300
 30
 0
 40
0.25500
 50
359.77487
 51
90.22513
  0
LINE
  8
Gravur
 62
   7
 39
0.200
  6
CONTINUOUS
 10
31.55800
 20
117.35200
 30
 0
 11
32.45400
 21
117.35200
  0
LINE
  8
Gravur
 62
   7
 39
0.200
  6
CONTINUOUS
 10
32.45400
 20
117.35200
 30
 0
 11
32.45400
 21
117.60800
  0
ARC
  8
Gravur
 62
   7
 39
0.200
  6
CONTINUOUS
 10
31.76321
 20
117.59087
 30
 0
 40
0.69100
 50
1.42060
 51
85.78503
  0
ARC
  8
Gravur
 62
   7
 39
0.200
  6
CONTINUOUS
 10
30.53400
 20
104.76347
 30
 0
 40
13.57700
 50
84.59029
 51
95.40971
  0
ARC
  8
Gravur
 62
   7
 39
0.200
  6
CONTINUOUS
 10
29.32200
 20
117.57527
 30
 0
 40
0.70800
 50
95.51145
 51
179.94117
  0
LINE
  8
Gravur
 62
   7
 39
0.200
  6
CONTINUOUS
 10
28.61400
 20
117.57600
 30
 0
 11
28.61400
 21
117.12800
  0
ARC
  8
Gravur
 62
   7
 39
0.200
  6
CONTINUOUS
 10
29.31800
 20
117.12727
 30
 0
 40
0.70400
 50
179.94078
 51
267.39478
  0
LINE
  8
Gravur
 62
   7
 39
0.200
  6
CONTINUOUS
 10
29.28600
 20
116.42400
 30
 0
 11
31.30200
 21
116.36000
  0
ARC
  8
Gravur
 62
   7
 39
0.200
  6
CONTINUOUS
 10
31.30200
 20
116.08800
 30
 0
 40
0.27200
 50
270.00000
 51
90.00000
  0
LINE
  8
Gravur
 62
   7
 39
0.200
  6
CONTINUOUS
 10
31.30200
 20
115.81600
 30
 0
 11
29.76600
 21
115.81600
  0
ARC
  8
Gravur
 62
   7
 39
0.200
  6
CONTINUOUS
 10
29.76500
 20
116.07100
 30
 0
 40
0.25500
 50
179.77487
 51
-89.77487
  0
LINE
  8
Gravur
 62
   7
 39
0.200
  6
CONTINUOUS
 10
36.67800
 20
117.19200
 30
 0
 11
37.57400
 21
117.19200
  0
LINE
  8
Gravur
 62
   7
 39
0.200
  6
CONTINUOUS
 10
37.57400
 20
117.19200
 30
 0
 11
37.57400
 21
117.57600
  0
ARC
  8
Gravur
 62
   7
 39
0.200
  6
CONTINUOUS
 10
36.86600
 20
117.57527
 30
 0
 40
0.70800
 50
0.05883
 51
84.48855
  0
ARC
  8
Gravur
 62
   7
 39
0.200
  6
CONTINUOUS
 10
35.49400
 20
103.07403
 30
 0
 40
15.27400
 50
84.59024
 51
95.40976
  0
ARC
  8
Gravur
 62
   7
 39
0.200
  6
CONTINUOUS
 10
34.12200
 20
117.57527
 30
 0
 40
0.70800
 50
95.51145
 51
179.94117
  0
LINE
  8
Gravur
 62
   7
 39
0.200
  6
CONTINUOUS
 10
33.41400
 20
117.57600
 30
 0
 11
33.41400
 21
115.81600
  0
ARC
  8
Gravur
 62
   7
 39
0.200
  6
CONTINUOUS
 10
34.10479
 20
115.83313
 30
 0
 40
0.69100
 50
-178.57940
 51
-94.21497
  0
ARC
  8
Gravur
 62
   7
 39
0.200
  6
CONTINUOUS
 10
35.49400
 20
130.34997
 30
 0
 40
15.27400
 50
-95.40976
 51
-84.59024
  0
ARC
  8
Gravur
 62
   7
 39
0.200
  6
CONTINUOUS
 10
36.88321
 20
115.83313
 30
 0
 40
0.69100
 50
-85.78503
 51
-1.42060
  0
LINE
  8
Gravur
 62
   7
 39
0.200
  6
CONTINUOUS
 10
37.57400
 20
115.81600
 30
 0
 11
37.57400
 21
116.39200
  0
LINE
  8
Gravur
 62
   7
 39
0.200
  6
CONTINUOUS
 10
37.57400
 20
116.39200
 30
 0
 11
36.67800
 21
116.39200
  0
LINE
  8
Gravur
 62
   7
 39
0.200
  6
CONTINUOUS
 10
36.67800
 20
116.39200
 30
 0
 11
36.67800
 21
116.23200
  0
ARC
  8
Gravur
 62
   7
 39
0.200
  6
CONTINUOUS
 10
36.29001
 20
116.23433
 30
 0
 40
0.38800
 50
275.32273
 51
-0.34362
  0
ARC
  8
Gravur
 62
   7
 39
0.200
  6
CONTINUOUS
 10
35.49400
 20
124.63369
 30
 0
 40
8.82500
 50
264.59026
 51
-84.59026
  0
ARC
  8
Gravur
 62
   7
 39
0.200
  6
CONTINUOUS
 10
34.69799
 20
116.23433
 30
 0
 40
0.38800
 50
180.34362
 51
-95.32273
  0
LINE
  8
Gravur
 62
   7
 39
0.200
  6
CONTINUOUS
 10
34.31000
 20
116.23200
 30
 0
 11
34.31000
 21
117.19200
  0
ARC
  8
Gravur
 62
   7
 39
0.200
  6
CONTINUOUS
 10
34.69799
 20
117.18967
 30
 0
 40
0.38800
 50
455.32273
 51
179.65638
  0
ARC
  8
Gravur
 62
   7
 39
0.200
  6
CONTINUOUS
 10
35.49400
 20
108.79031
 30
 0
 40
8.82500
 50
444.59026
 51
95.40974
  0
ARC
  8
Gravur
 62
   7
 39
0.200
  6
CONTINUOUS
 10
36.29001
 20
117.18967
 30
 0
 40
0.38800
 50
360.34362
 51
84.67727
  0
ARC
  8
Gravur
 62
   7
 39
0.200
  6
CONTINUOUS
 10
12.56794
 20
93.30156
 30
 0
 40
0.60500
 50
179.20086
 51
230.60868
  0
ARC
  8
Gravur
 62
   7
 39
0.200
  6
CONTINUOUS
 10
12.86885
 20
93.67426
 30
 0
 40
1.08400
 50
-129.18186
 51
-64.23782
  0
ARC
  8
Gravur
 62
   7
 39
0.200
  6
CONTINUOUS
 10
13.09106
 20
93.25051
 30
 0
 40
0.60600
 50
-65.74537
 51
-0.80441
  0
ARC
  8
Gravur
 62
   7
 39
0.200
  6
CONTINUOUS
 10
13.14700
 20
93.24248
 30
 0
 40
0.55000
 50
-0.05042
 51
73.19649
  0
LINE
  8
Gravur
 62
   7
 39
0.200
  6
CONTINUOUS
 10
13.30600
 20
93.76900
 30
 0
 11
12.35400
 21
93.97300
  0
ARC
  8
Gravur
 62
   7
 39
0.200
  6
CONTINUOUS
 10
12.51300
 20
94.49952
 30
 0
 40
0.55000
 50
179.94958
 51
-106.80351
  0
ARC
  8
Gravur
 62
   7
 39
0.200
  6
CONTINUOUS
 10
12.56894
 20
94.49149
 30
 0
 40
0.60600
 50
474.25463
 51
179.19559
  0
ARC
  8
Gravur
 62
   7
 39
0.200
  6
CONTINUOUS
 10
12.79115
 20
94.06774
 30
 0
 40
1.08400
 50
410.81814
 51
115.76218
  0
ARC
  8
Gravur
 62
   7
 39
0.200
  6
CONTINUOUS
 10
13.09206
 20
94.44044
 30
 0
 40
0.60500
 50
359.20086
 51
50.60868
  0
LINE
  8
Gravur
 62
   7
 39
0.200
  6
CONTINUOUS
 10
14.07100
 20
95.29900
 30
 0
 11
14.07100
 21
95.16300
  0
LINE
  8
Gravur
 62
   7
 39
0.200
  6
CONTINUOUS
 10
14.07100
 20
94.33000
 30
 0
 11
14.07100
 21
92.63000
  0
LINE
  8
Gravur
 62
   7
 39
0.200
  6
CONTINUOUS
 10
15.94100
 20
94.33000
 30
 0
 11
15.94100
 21
93.37800
  0
ARC
  8
Gravur
 62
   7
 39
0.200
  6
CONTINUOUS
 10
15.19515
 20
93.36285
 30
 0
 40
0.74600
 50
190.64825
 51
1.16403
  0
ARC
  8
Gravur
 62
   7
 39
0.200
  6
CONTINUOUS
 10
15.93350
 20
93.50550
 30
 0
 40
1.49800
 50
169.20768
 51
-169.20768
  0
ARC
  8
Gravur
 62
   7
 39
0.200
  6
CONTINUOUS
 10
15.19500
 20
93.64736
 30
 0
 40
0.74600
 50
360.20252
 51
169.28988
  0
LINE
  8
Gravur
 62
   7
 39
0.200
  6
CONTINUOUS
 10
15.94100
 20
93.65000
 30
 0
 11
15.94100
 21
92.56200
  0
ARC
  8
Gravur
 62
   7
 39
0.200
  6
CONTINUOUS
 10
15.32708
 20
92.55198
 30
 0
 40
0.61400
 50
281.35779
 51
0.93546
  0
ARC
  8
Gravur
 62
   7
 39
0.200
  6
CONTINUOUS
 10
15.19300
 20
93.28690
 30
 0
 40
1.36100
 50
259.20111
 51
-79.20111
  0
ARC
  8
Gravur
 62
   7
 39
0.200
  6
CONTINUOUS
 10
15.05879
 20
92.55302
 30
 0
 40
0.61500
 50
210.70414
 51
-101.32656
  0
LINE
  8
Gravur
 62
   7
 39
0.200
  6
CONTINUOUS
 10
16.31500
 20
94.33000
 30
 0
 11
16.31500
 21
92.63000
  0
LINE
  8
Gravur
 62
   7
 39
0.200
  6
CONTINUOUS
 10
16.31500
 20
92.63000
 30
 0
 11
16.31500
 21
93.65000
  0
ARC
  8
Gravur
 62
   7
 39
0.200
  6
CONTINUOUS
 10
17.05899
 20
93.65401
 30
 0
 40
0.74400
 50
89.69112
 51
-179.69112
  0
ARC
  8
Gravur
 62
   7
 39
0.200
  6
CONTINUOUS
 10
17.06601
 20
93.85701
 30
 0
 40
0.54100
 50
359.68139
 51
90.31861
  0
LINE
  8
Gravur
 62
   7
 39
0.200
  6
CONTINUOUS
 10
17.60700
 20
93.85400
 30
 0
 11
17.60700
 21
92.63000
  0
ARC
  8
Gravur
 62
   7
 39
0.200
  6
CONTINUOUS
 10
18.57087
 20
93.91915
 30
 0
 40
0.47900
 50
451.42053
 51
169.43163
  0
LINE
  8
Gravur
 62
   7
 39
0.200
  6
CONTINUOUS
 10
18.55900
 20
94.39800
 30
 0
 11
18.76300
 21
94.39800
  0
ARC
  8
Gravur
 62
   7
 39
0.200
  6
CONTINUOUS
 10
18.76601
 20
93.92501
 30
 0
 40
0.47300
 50
359.63544
 51
90.36456
  0
LINE
  8
Gravur
 62
   7
 39
0.200
  6
CONTINUOUS
 10
19.23900
 20
93.92200
 30
 0
 11
19.23900
 21
93.24200
  0
ARC
  8
Gravur
 62
   7
 39
0.200
  6
CONTINUOUS
 10
18.43005
 20
93.40394
 30
 0
 40
0.82500
 50
270.69105
 51
-11.32014
  0
ARC
  8
Gravur
 62
   7
 39
0.200
  6
CONTINUOUS
 10
18.43699
 20
93.05199
 30
 0
 40
0.47300
 50
179.63544
 51
-89.63544
  0
ARC
  8
Gravur
 62
   7
 39
0.200
  6
CONTINUOUS
 10
18.37196
 20
93.06070
 30
 0
 40
0.40800
 50
99.58840
 51
-179.19954
  0
LINE
  8
Gravur
 62
   7
 39
0.200
  6
CONTINUOUS
 10
18.30400
 20
93.46300
 30
 0
 11
19.06900
 21
93.59900
  0
ARC
  8
Gravur
 62
   7
 39
0.200
  6
CONTINUOUS
 10
19.04099
 20
93.80107
 30
 0
 40
0.20400
 50
-82.10785
 51
-13.91772
  0
LINE
  8
Gravur
 62
   7
 39
0.200
  6
CONTINUOUS
 10
19.23900
 20
93.75200
 30
 0
 11
19.23900
 21
92.90200
  0
ARC
  8
Gravur
 62
   7
 39
0.200
  6
CONTINUOUS
 10
19.51000
 20
92.90100
 30
 0
 40
0.27100
 50
179.78818
 51
270.21182
  0
LINE
  8
Gravur
 62
   7
 39
0.200
  6
CONTINUOUS
 10
19.88500
 20
95.07800
 30
 0
 11
19.88500
 21
93.85400
  0
LINE
  8
Gravur
 62
   7
 39
0.200
  6
CONTINUOUS
 10
19.88500
 20
93.85400
 30
 0
 11
19.88500
 21
92.63000
  0
LINE
  8
Gravur
 62
   7
 39
0.200
  6
CONTINUOUS
 10
28.56500
 20
93.71800
 30
 0
 11
28.56500
 21
93.99000
  0
ARC
  8
Gravur
 62
   7
 39
0.200
  6
CONTINUOUS
 10
29.85591
 20
94.00507
 30
 0
 40
1.29100
 50
159.08185
 51
-179.33120
  0
ARC
  8
Gravur
 62
   7
 39
0.200
  6
CONTINUOUS
 10
29.65300
 20
94.03928
 30
 0
 40
1.09000
 50
383.04708
 51
156.95292
  0
ARC
  8
Gravur
 62
   7
 39
0.200
  6
CONTINUOUS
 10
29.45834
 20
93.96043
 30
 0
 40
1.30000
 50
361.30341
 51
22.88611
  0
LINE
  8
Gravur
 62
   7
 39
0.200
  6
CONTINUOUS
 10
30.75800
 20
93.99000
 30
 0
 11
30.75800
 21
93.71800
  0
ARC
  8
Gravur
 62
   7
 39
0.200
  6
CONTINUOUS
 10
29.45834
 20
93.74757
 30
 0
 40
1.30000
 50
337.11389
 51
-1.30341
  0
ARC
  8
Gravur
 62
   7
 39
0.200
  6
CONTINUOUS
 10
29.65300
 20
93.66872
 30
 0
 40
1.09000
 50
203.04708
 51
-23.04708
  0
ARC
  8
Gravur
 62
   7
 39
0.200
  6
CONTINUOUS
 10
29.85591
 20
93.70293
 30
 0
 40
1.29100
 50
179.33120
 51
-159.08185
  0
LINE
  8
Gravur
 62
   7
 39
0.200
  6
CONTINUOUS
 10
31.11500
 20
94.33000
 30
 0
 11
31.72700
 21
92.63000
  0
LINE
  8
Gravur
 62
   7
 39
0.200
  6
CONTINUOUS
 10
31.72700
 20
92.63000
 30
 0
 11
31.79500
 21
92.63000
  0
LINE
  8
Gravur
 62
   7
 39
0.200
  6
CONTINUOUS
 10
31.79500
 20
92.63000
 30
 0
 11
32.40700
 21
94.33000
  0
LINE
  8
Gravur
 62
   7
 39
0.200
  6
CONTINUOUS
 10
32.79800
 20
93.53100
 30
 0
 11
34.29400
 21
93.53100
  0
LINE
  8
Gravur
 62
   7
 39
0.200
  6
CONTINUOUS
 10
34.29400
 20
93.53100
 30
 0
 11
34.29400
 21
93.66700
  0
ARC
  8
Gravur
 62
   7
 39
0.200
  6
CONTINUOUS
 10
33.54800
 20
93.66436
 30
 0
 40
0.74600
 50
0.20252
 51
169.28988
  0
ARC
  8
Gravur
 62
   7
 39
0.200
  6
CONTINUOUS
 10
34.28650
 20
93.52250
 30
 0
 40
1.49800
 50
169.20768
 51
190.79232
  0
ARC
  8
Gravur
 62
   7
 39
0.200
  6
CONTINUOUS
 10
33.61238
 20
93.39000
 30
 0
 40
0.81100
 50
-169.48524
 51
-89.88567
  0
ARC
  8
Gravur
 62
   7
 39
0.200
  6
CONTINUOUS
 10
33.61161
 20
93.40000
 30
 0
 40
0.82100
 50
-89.83333
 51
-31.58395
  0
LINE
  8
Gravur
 62
   7
 39
0.200
  6
CONTINUOUS
 10
34.68500
 20
94.33000
 30
 0
 11
34.68500
 21
92.63000
  0
LINE
  8
Gravur
 62
   7
 39
0.200
  6
CONTINUOUS
 10
34.68500
 20
92.63000
 30
 0
 11
34.68500
 21
93.65000
  0
ARC
  8
Gravur
 62
   7
 39
0.200
  6
CONTINUOUS
 10
35.44400
 20
93.64746
 30
 0
 40
0.75900
 50
458.56171
 51
179.80812
  0
LINE
  8
Gravur
 62
   7
 39
0.200
  6
CONTINUOUS
 10
35.70500
 20
95.07800
 30
 0
 11
35.70500
 21
93.85400
  0
LINE
  8
Gravur
 62
   7
 39
0.200
  6
CONTINUOUS
 10
35.70500
 20
93.85400
 30
 0
 11
35.70500
 21
92.63000
  0
ARC
  8
Gravur
 62
   7
 39
0.200
  6
CONTINUOUS
 10
37.58450
 20
93.52250
 30
 0
 40
1.49800
 50
169.20768
 51
-169.20768
  0
ARC
  8
Gravur
 62
   7
 39
0.200
  6
CONTINUOUS
 10
36.84400
 20
93.66453
 30
 0
 40
0.74400
 50
370.72648
 51
169.27352
  0
ARC
  8
Gravur
 62
   7
 39
0.200
  6
CONTINUOUS
 10
36.10350
 20
93.52250
 30
 0
 40
1.49800
 50
349.20768
 51
10.79232
  0
ARC
  8
Gravur
 62
   7
 39
0.200
  6
CONTINUOUS
 10
36.84400
 20
93.38047
 30
 0
 40
0.74400
 50
190.72648
 51
-10.72648
  0
ARC
  8
Gravur
 62
   7
 39
0.200
  6
CONTINUOUS
 10
38.57287
 20
93.91915
 30
 0
 40
0.47900
 50
451.42053
 51
169.43163
  0
LINE
  8
Gravur
 62
   7
 39
0.200
  6
CONTINUOUS
 10
38.56100
 20
94.39800
 30
 0
 11
38.76500
 21
94.39800
  0
ARC
  8
Gravur
 62
   7
 39
0.200
  6
CONTINUOUS
 10
38.76801
 20
93.92501
 30
 0
 40
0.47300
 50
359.63544
 51
90.36456
  0
LINE
  8
Gravur
 62
   7
 39
0.200
  6
CONTINUOUS
 10
39.24100
 20
93.92200
 30
 0
 11
39.24100
 21
93.24200
  0
ARC
  8
Gravur
 62
   7
 39
0.200
  6
CONTINUOUS
 10
38.43205
 20
93.40394
 30
 0
 40
0.82500
 50
270.69105
 51
-11.32014
  0
ARC
  8
Gravur
 62
   7
 39
0.200
  6
CONTINUOUS
 10
38.43899
 20
93.05199
 30
 0
 40
0.47300
 50
179.63544
 51
-89.63544
  0
ARC
  8
Gravur
 62
   7
 39
0.200
  6
CONTINUOUS
 10
38.37396
 20
93.06070
 30
 0
 40
0.40800
 50
99.58840
 51
-179.19954
  0
LINE
  8
Gravur
 62
   7
 39
0.200
  6
CONTINUOUS
 10
38.30600
 20
93.46300
 30
 0
 11
39.07100
 21
93.59900
  0
ARC
  8
Gravur
 62
   7
 39
0.200
  6
CONTINUOUS
 10
39.04299
 20
93.80107
 30
 0
 40
0.20400
 50
-82.10785
 51
-13.91772
  0
LINE
  8
Gravur
 62
   7
 39
0.200
  6
CONTINUOUS
 10
39.24100
 20
93.75200
 30
 0
 11
39.24100
 21
92.90200
  0
ARC
  8
Gravur
 62
   7
 39
0.200
  6
CONTINUOUS
 10
39.51200
 20
92.90100
 30
 0
 40
0.27100
 50
179.78818
 51
270.21182
  0
LINE
  8
Gravur
 62
   7
 39
0.200
  6
CONTINUOUS
 10
41.38300
 20
95.07800
 30
 0
 11
41.38300
 21
93.85400
  0
LINE
  8
Gravur
 62
   7
 39
0.200
  6
CONTINUOUS
 10
41.38300
 20
93.85400
 30
 0
 11
41.38300
 21
92.63000
  0
LINE
  8
Gravur
 62
   7
 39
0.200
  6
CONTINUOUS
 10
41.38300
 20
92.63000
 30
 0
 11
41.38300
 21
93.65000
  0
ARC
  8
Gravur
 62
   7
 39
0.200
  6
CONTINUOUS
 10
40.63700
 20
93.64736
 30
 0
 40
0.74600
 50
0.20252
 51
169.28988
  0
ARC
  8
Gravur
 62
   7
 39
0.200
  6
CONTINUOUS
 10
41.37550
 20
93.50550
 30
 0
 40
1.49800
 50
169.20768
 51
190.79232
  0
ARC
  8
Gravur
 62
   7
 39
0.200
  6
CONTINUOUS
 10
40.63715
 20
93.36285
 30
 0
 40
0.74600
 50
-169.35175
 51
1.16403
  0
ARC
  8
Gravur
 62
   7
 39
0.200
  6
CONTINUOUS
 10
23.12900
 20
41.96888
 30
 0
 40
1.28200
 50
23.00997
 51
156.99003
  0
ARC
  8
Gravur
 62
   7
 39
0.200
  6
CONTINUOUS
 10
23.36790
 20
41.92770
 30
 0
 40
1.51900
 50
159.08312
 51
180.66753
  0
LINE
  8
Gravur
 62
   7
 39
0.200
  6
CONTINUOUS
 10
21.84900
 20
41.91000
 30
 0
 11
21.84900
 21
41.59000
  0
ARC
  8
Gravur
 62
   7
 39
0.200
  6
CONTINUOUS
 10
23.36790
 20
41.57230
 30
 0
 40
1.51900
 50
179.33247
 51
200.91688
  0
ARC
  8
Gravur
 62
   7
 39
0.200
  6
CONTINUOUS
 10
23.12900
 20
41.53112
 30
 0
 40
1.28200
 50
-156.99003
 51
-23.00997
  0
ARC
  8
Gravur
 62
   7
 39
0.200
  6
CONTINUOUS
 10
22.90039
 20
41.62470
 30
 0
 40
1.52900
 50
-22.88905
 51
-1.30046
  0
LINE
  8
Gravur
 62
   7
 39
0.200
  6
CONTINUOUS
 10
24.42900
 20
41.59000
 30
 0
 11
23.30900
 21
41.59000
  0
LINE
  8
Gravur
 62
   7
 39
0.200
  6
CONTINUOUS
 10
23.30900
 20
41.59000
 30
 0
 11
24.42900
 21
41.59000
  0
LINE
  8
Gravur
 62
   7
 39
0.200
  6
CONTINUOUS
 10
24.42900
 20
41.59000
 30
 0
 11
24.42900
 21
40.31000
  0
ARC
  8
Gravur
 62
   7
 39
0.200
  6
CONTINUOUS
 10
25.54253
 20
41.82716
 30
 0
 40
0.56300
 50
451.37688
 51
169.47528
  0
LINE
  8
Gravur
 62
   7
 39
0.200
  6
CONTINUOUS
 10
25.52900
 20
42.39000
 30
 0
 11
25.76900
 21
42.39000
  0
ARC
  8
Gravur
 62
   7
 39
0.200
  6
CONTINUOUS
 10
25.77201
 20
41.83301
 30
 0
 40
0.55700
 50
359.69057
 51
90.30943
  0
LINE
  8
Gravur
 62
   7
 39
0.200
  6
CONTINUOUS
 10
26.32900
 20
41.83000
 30
 0
 11
26.32900
 21
41.03000
  0
ARC
  8
Gravur
 62
   7
 39
0.200
  6
CONTINUOUS
 10
25.37778
 20
41.21994
 30
 0
 40
0.97000
 50
270.66292
 51
-11.29201
  0
ARC
  8
Gravur
 62
   7
 39
0.200
  6
CONTINUOUS
 10
25.38599
 20
40.80699
 30
 0
 40
0.55700
 50
179.69057
 51
-89.69057
  0
ARC
  8
Gravur
 62
   7
 39
0.200
  6
CONTINUOUS
 10
25.30895
 20
40.81671
 30
 0
 40
0.48000
 50
99.58840
 51
-179.19954
  0
LINE
  8
Gravur
 62
   7
 39
0.200
  6
CONTINUOUS
 10
25.22900
 20
41.29000
 30
 0
 11
26.12900
 21
41.45000
  0
ARC
  8
Gravur
 62
   7
 39
0.200
  6
CONTINUOUS
 10
26.09605
 20
41.68773
 30
 0
 40
0.24000
 50
-82.10785
 51
-13.91772
  0
LINE
  8
Gravur
 62
   7
 39
0.200
  6
CONTINUOUS
 10
26.32900
 20
41.63000
 30
 0
 11
26.32900
 21
40.63000
  0
ARC
  8
Gravur
 62
   7
 39
0.200
  6
CONTINUOUS
 10
26.64699
 20
40.62799
 30
 0
 40
0.31800
 50
179.63851
 51
270.36149
  0
LINE
  8
Gravur
 62
   7
 39
0.200
  6
CONTINUOUS
 10
27.08900
 20
43.45000
 30
 0
 11
27.08900
 21
43.29000
  0
LINE
  8
Gravur
 62
   7
 39
0.200
  6
CONTINUOUS
 10
27.08900
 20
42.31000
 30
 0
 11
27.08900
 21
40.31000
  0
LINE
  8
Gravur
 62
   7
 39
0.200
  6
CONTINUOUS
 10
27.52900
 20
42.31000
 30
 0
 11
27.52900
 21
40.31000
  0
LINE
  8
Gravur
 62
   7
 39
0.200
  6
CONTINUOUS
 10
27.52900
 20
40.31000
 30
 0
 11
27.52900
 21
41.51000
  0
ARC
  8
Gravur
 62
   7
 39
0.200
  6
CONTINUOUS
 10
28.40399
 20
41.51501
 30
 0
 40
0.87500
 50
89.67165
 51
-179.67165
  0
ARC
  8
Gravur
 62
   7
 39
0.200
  6
CONTINUOUS
 10
28.41201
 20
41.75301
 30
 0
 40
0.63700
 50
359.72952
 51
90.27048
  0
LINE
  8
Gravur
 62
   7
 39
0.200
  6
CONTINUOUS
 10
29.04900
 20
41.75000
 30
 0
 11
29.04900
 21
40.31000
  0
LINE
  8
Gravur
 62
   7
 39
0.200
  6
CONTINUOUS
 10
36.00700
 20
45.27300
 30
 0
 11
34.23900
 21
47.04100
  0
LINE
  8
Gravur
 62
   7
 39
0.200
  6
CONTINUOUS
 10
39.66600
 20
51.24400
 30
 0
 11
37.28800
 21
52.01700
  0
LINE
  8
Gravur
 62
   7
 39
0.200
  6
CONTINUOUS
 10
40.21600
 20
58.22700
 30
 0
 11
37.74600
 21
57.83600
  0
LINE
  8
Gravur
 62
   7
 39
0.200
  6
CONTINUOUS
 10
37.53600
 20
64.69700
 30
 0
 11
35.51300
 21
63.22800
  0
LINE
  8
Gravur
 62
   7
 39
0.200
  6
CONTINUOUS
 10
32.21000
 20
69.24500
 30
 0
 11
31.07500
 21
67.01800
  0
LINE
  8
Gravur
 62
   7
 39
0.200
  6
CONTINUOUS
 10
25.40000
 20
70.88000
 30
 0
 11
25.40000
 21
68.38000
  0
LINE
  8
Gravur
 62
   7
 39
0.200
  6
CONTINUOUS
 10
18.59000
 20
69.24500
 30
 0
 11
19.72500
 21
67.01800
  0
LINE
  8
Gravur
 62
   7
 39
0.200
  6
CONTINUOUS
 10
13.26400
 20
64.69700
 30
 0
 11
15.28700
 21
63.22800
  0
LINE
  8
Gravur
 62
   7
 39
0.200
  6
CONTINUOUS
 10
10.58400
 20
58.22700
 30
 0
 11
13.05400
 21
57.83600
  0
LINE
  8
Gravur
 62
   7
 39
0.200
  6
CONTINUOUS
 10
11.13400
 20
51.24400
 30
 0
 11
13.51200
 21
52.01700
  0
LINE
  8
Gravur
 62
   7
 39
0.200
  6
CONTINUOUS
 10
16.56100
 20
47.04100
 30
 0
 11
14.79300
 21
45.27300
  0
LINE
  8
Gravur
 62
   7
 39
0.200
  6
CONTINUOUS
 10
37.33700
 20
48.56500
 30
 0
 11
36.05800
 21
49.34900
  0
LINE
  8
Gravur
 62
   7
 39
0.200
  6
CONTINUOUS
 10
39.35700
 20
54.78100
 30
 0
 11
37.86200
 21
54.89900
  0
LINE
  8
Gravur
 62
   7
 39
0.200
  6
CONTINUOUS
 10
38.33500
 20
61.23800
 30
 0
 11
36.94900
 21
60.66400
  0
LINE
  8
Gravur
 62
   7
 39
0.200
  6
CONTINUOUS
 10
34.49300
 20
66.52600
 30
 0
 11
33.51800
 21
65.38500
  0
LINE
  8
Gravur
 62
   7
 39
0.200
  6
CONTINUOUS
 10
28.66800
 20
69.49300
 30
 0
 11
28.31800
 21
68.03500
  0
LINE
  8
Gravur
 62
   7
 39
0.200
  6
CONTINUOUS
 10
22.13200
 20
69.49300
 30
 0
 11
22.48200
 21
68.03500
  0
LINE
  8
Gravur
 62
   7
 39
0.200
  6
CONTINUOUS
 10
16.30700
 20
66.52600
 30
 0
 11
17.28200
 21
65.38500
  0
LINE
  8
Gravur
 62
   7
 39
0.200
  6
CONTINUOUS
 10
12.46500
 20
61.23800
 30
 0
 11
13.85100
 21
60.66400
  0
LINE
  8
Gravur
 62
   7
 39
0.200
  6
CONTINUOUS
 10
11.44300
 20
54.78100
 30
 0
 11
12.93800
 21
54.89900
  0
LINE
  8
Gravur
 62
   7
 39
0.200
  6
CONTINUOUS
 10
14.74200
 20
49.34900
 30
 0
 11
13.46300
 21
48.56500
  0
CIRCLE
  8
Kontur
 62
   7
 39
0.200
  6
CONTINUOUS
 10
25.51100
 20
55.94000
 30
 0
 40
4.50000
  0
CIRCLE
  8
Kontur
 62
   7
 39
0.200
  6
CONTINUOUS
 10
15.82500
 20
88.80000
 30
 0
 40
1.50000
  0
CIRCLE
  8
Kontur
 62
   7
 39
0.200
  6
CONTINUOUS
 10
34.85000
 20
25.30000
 30
 0
 40
3.80000
  0
CIRCLE
  8
Kontur
 62
   7
 39
0.200
  6
CONTINUOUS
 10
15.85000
 20
25.30000
 30
 0
 40
3.80000
  0
ARC
  8
Kontur
 62
   7
 39
0.200
  6
CONTINUOUS
 10
5.61193
 20
3.65000
 30
 0
 40
1.00000
 50
449.99581
 51
160.54904
  0
LINE
  8
Kontur
 62
   7
 39
0.200
  6
CONTINUOUS
 10
5.61200
 20
4.65000
 30
 0
 11
9.28800
 21
4.65000
  0
ARC
  8
Kontur
 62
   7
 39
0.200
  6
CONTINUOUS
 10
9.28807
 20
3.65000
 30
 0
 40
1.00000
 50
379.45096
 51
90.00419
  0
ARC
  8
Kontur
 62
   7
 39
0.200
  6
CONTINUOUS
 10
7.44960
 20
3.00000
 30
 0
 40
2.95000
 50
340.53565
 51
19.46435
  0
ARC
  8
Kontur
 62
   7
 39
0.200
  6
CONTINUOUS
 10
9.28807
 20
2.35000
 30
 0
 40
1.00000
 50
269.99581
 51
-19.45096
  0
LINE
  8
Kontur
 62
   7
 39
0.200
  6
CONTINUOUS
 10
9.28800
 20
1.35000
 30
 0
 11
5.61200
 21
1.35000
  0
ARC
  8
Kontur
 62
   7
 39
0.200
  6
CONTINUOUS
 10
5.61193
 20
2.35000
 30
 0
 40
1.00000
 50
199.45096
 51
-89.99581
  0
ARC
  8
Kontur
 62
   7
 39
0.200
  6
CONTINUOUS
 10
7.45040
 20
3.00000
 30
 0
 40
2.95000
 50
160.53565
 51
-160.53565
  0
ARC
  8
Kontur
 62
   7
 39
0.200
  6
CONTINUOUS
 10
5.61193
 20
126.05000
 30
 0
 40
1.00000
 50
449.99581
 51
160.54904
  0
LINE
  8
Kontur
 62
   7
 39
0.200
  6
CONTINUOUS
 10
5.61200
 20
127.05000
 30
 0
 11
9.28800
 21
127.05000
  0
ARC
  8
Kontur
 62
   7
 39
0.200
  6
CONTINUOUS
 10
9.28807
 20
126.05000
 30
 0
 40
1.00000
 50
379.45096
 51
90.00419
  0
ARC
  8
Kontur
 62
   7
 39
0.200
  6
CONTINUOUS
 10
7.44960
 20
125.40000
 30
 0
 40
2.95000
 50
340.53565
 51
19.46435
  0
ARC
  8
Kontur
 62
   7
 39
0.200
  6
CONTINUOUS
 10
9.28807
 20
124.75000
 30
 0
 40
1.00000
 50
269.99581
 51
-19.45096
  0
LINE
  8
Kontur
 62
   7
 39
0.200
  6
CONTINUOUS
 10
9.28800
 20
123.75000
 30
 0
 11
5.61200
 21
123.75000
  0
ARC
  8
Kontur
 62
   7
 39
0.200
  6
CONTINUOUS
 10
5.61193
 20
124.75000
 30
 0
 40
1.00000
 50
199.45096
 51
-89.99581
  0
ARC
  8
Kontur
 62
   7
 39
0.200
  6
CONTINUOUS
 10
7.45040
 20
125.40000
 30
 0
 40
2.95000
 50
160.53565
 51
-160.53565
  0
CIRCLE
  8
Kontur
 62
   7
 39
0.200
  6
CONTINUOUS
 10
7.45000
 20
14.70000
 30
 0
 40
2.50000
  0
CIRCLE
  8
Kontur
 62
   7
 39
0.200
  6
CONTINUOUS
 10
7.45000
 20
14.70000
 30
 0
 40
1.35000
  0
CIRCLE
  8
Kontur
 62
   7
 39
0.200
  6
CONTINUOUS
 10
7.45000
 20
113.70000
 30
 0
 40
2.50000
  0
CIRCLE
  8
Kontur
 62
   7
 39
0.200
  6
CONTINUOUS
 10
7.45000
 20
113.70000
 30
 0
 40
1.35000
  0
ARC
  8
Kontur
 62
   7
 39
0.200
  6
CONTINUOUS
 10
41.17193
 20
3.65000
 30
 0
 40
1.00000
 50
449.99581
 51
160.54904
  0
LINE
  8
Kontur
 62
   7
 39
0.200
  6
CONTINUOUS
 10
41.17200
 20
4.65000
 30
 0
 11
44.84800
 21
4.65000
  0
ARC
  8
Kontur
 62
   7
 39
0.200
  6
CONTINUOUS
 10
44.84807
 20
3.65000
 30
 0
 40
1.00000
 50
379.45096
 51
90.00419
  0
ARC
  8
Kontur
 62
   7
 39
0.200
  6
CONTINUOUS
 10
43.00960
 20
3.00000
 30
 0
 40
2.95000
 50
340.53565
 51
19.46435
  0
ARC
  8
Kontur
 62
   7
 39
0.200
  6
CONTINUOUS
 10
44.84807
 20
2.35000
 30
 0
 40
1.00000
 50
269.99581
 51
-19.45096
  0
LINE
  8
Kontur
 62
   7
 39
0.200
  6
CONTINUOUS
 10
44.84800
 20
1.35000
 30
 0
 11
41.17200
 21
1.35000
  0
ARC
  8
Kontur
 62
   7
 39
0.200
  6
CONTINUOUS
 10
41.17193
 20
2.35000
 30
 0
 40
1.00000
 50
199.45096
 51
-89.99581
  0
ARC
  8
Kontur
 62
   7
 39
0.200
  6
CONTINUOUS
 10
43.01040
 20
3.00000
 30
 0
 40
2.95000
 50
160.53565
 51
-160.53565
  0
ARC
  8
Kontur
 62
   7
 39
0.200
  6
CONTINUOUS
 10
41.17193
 20
126.05000
 30
 0
 40
1.00000
 50
449.99581
 51
160.54904
  0
LINE
  8
Kontur
 62
   7
 39
0.200
  6
CONTINUOUS
 10
41.17200
 20
127.05000
 30
 0
 11
44.84800
 21
127.05000
  0
ARC
  8
Kontur
 62
   7
 39
0.200
  6
CONTINUOUS
 10
44.84807
 20
126.05000
 30
 0
 40
1.00000
 50
379.45096
 51
90.00419
  0
ARC
  8
Kontur
 62
   7
 39
0.200
  6
CONTINUOUS
 10
43.00960
 20
125.40000
 30
 0
 40
2.95000
 50
340.53565
 51
19.46435
  0
ARC
  8
Kontur
 62
   7
 39
0.200
  6
CONTINUOUS
 10
44.84807
 20
124.75000
 30
 0
 40
1.00000
 50
269.99581
 51
-19.45096
  0
LINE
  8
Kontur
 62
   7
 39
0.200
  6
CONTINUOUS
 10
44.84800
 20
123.75000
 30
 0
 11
41.17200
 21
123.75000
  0
ARC
  8
Kontur
 62
   7
 39
0.200
  6
CONTINUOUS
 10
41.17193
 20
124.75000
 30
 0
 40
1.00000
 50
199.45096
 51
-89.99581
  0
ARC
  8
Kontur
 62
   7
 39
0.200
  6
CONTINUOUS
 10
43.01040
 20
125.40000
 30
 0
 40
2.95000
 50
160.53565
 51
-160.53565
  0
CIRCLE
  8
Kontur
 62
   7
 39
0.200
  6
CONTINUOUS
 10
34.87500
 20
88.80000
 30
 0
 40
1.50000
  0
ENDSEC
  0
EOF
