  0
SECTION
  2
HEADER
  0
ENDSEC
  0
SECTION
  2
TABLES
  0
TABLE
  2
LTYPE
 70
     1
  0
LTYPE
  2
CONTINUOUS
 70
    64
  3
Ausgezogene Linie
 72
    65
 73
     0
 40
0.0
  0
ENDTAB
  0
TABLE
  2
LAYER
 70
     3
  0
LAYER
  2
Kontur
 70
    64
 62
     7
  6
CONTINUOUS
  0
LAYER
  2
Gravur
 70
    64
 62
     7
  6
CONTINUOUS
  0
LAYER
  2
Bezugspunkte
 70
    64
 62
     1
  6
CONTINUOUS
  0
ENDTAB
  0
TABLE
  2
STYLE
 70
     1
  0
STYLE
  2
TXT
 70
    64
 40
0.0
 41
1.0
 50
0.0
 71
     0
 42
3.500000
  3
TXT
  0
ENDTAB
  0
ENDSEC
  0
SECTION
  2
BLOCKS
  0
ENDSEC
  0
SECTION
  2
ENTITIES
  0
LINE
  8
Kontur
 62
   7
 39
0.100
  6
CONTINUOUS
 10
12.53000
 20
128.40000
 30
 0
 11
0.00000
 21
128.40000
  0
LINE
  8
Kontur
 62
   7
 39
0.100
  6
CONTINUOUS
 10
0.00000
 20
128.40000
 30
 0
 11
0.00000
 21
128.40000
  0
LINE
  8
Kontur
 62
   7
 39
0.100
  6
CONTINUOUS
 10
0.00000
 20
128.40000
 30
 0
 11
0.00000
 21
0.00000
  0
LINE
  8
Kontur
 62
   7
 39
0.100
  6
CONTINUOUS
 10
0.00000
 20
0.00000
 30
 0
 11
0.00000
 21
0.00000
  0
LINE
  8
Kontur
 62
   7
 39
0.100
  6
CONTINUOUS
 10
0.00000
 20
0.00000
 30
 0
 11
25.06000
 21
0.00000
  0
LINE
  8
Kontur
 62
   7
 39
0.100
  6
CONTINUOUS
 10
25.06000
 20
0.00000
 30
 0
 11
25.06000
 21
0.00000
  0
LINE
  8
Kontur
 62
   7
 39
0.100
  6
CONTINUOUS
 10
25.06000
 20
0.00000
 30
 0
 11
25.06000
 21
128.40000
  0
LINE
  8
Kontur
 62
   7
 39
0.100
  6
CONTINUOUS
 10
25.06000
 20
128.40000
 30
 0
 11
25.06000
 21
128.40000
  0
LINE
  8
Kontur
 62
   7
 39
0.100
  6
CONTINUOUS
 10
25.06000
 20
128.40000
 30
 0
 11
12.53000
 21
128.40000
  0
LINE
  8
Gravur
 62
   7
 39
0.200
  6
CONTINUOUS
 10
2.98600
 20
106.88200
 30
 0
 11
6.63400
 21
106.88200
  0
LINE
  8
Gravur
 62
   7
 39
0.200
  6
CONTINUOUS
 10
6.63400
 20
106.88200
 30
 0
 11
6.63400
 21
106.17800
  0
LINE
  8
Gravur
 62
   7
 39
0.200
  6
CONTINUOUS
 10
6.63400
 20
106.17800
 30
 0
 11
5.25800
 21
106.17800
  0
LINE
  8
Gravur
 62
   7
 39
0.200
  6
CONTINUOUS
 10
5.25800
 20
106.17800
 30
 0
 11
5.25800
 21
103.68200
  0
LINE
  8
Gravur
 62
   7
 39
0.200
  6
CONTINUOUS
 10
5.25800
 20
103.68200
 30
 0
 11
4.36200
 21
103.68200
  0
LINE
  8
Gravur
 62
   7
 39
0.200
  6
CONTINUOUS
 10
4.36200
 20
103.68200
 30
 0
 11
4.36200
 21
106.17800
  0
LINE
  8
Gravur
 62
   7
 39
0.200
  6
CONTINUOUS
 10
4.36200
 20
106.17800
 30
 0
 11
2.98600
 21
106.17800
  0
LINE
  8
Gravur
 62
   7
 39
0.200
  6
CONTINUOUS
 10
2.98600
 20
106.17800
 30
 0
 11
2.98600
 21
106.88200
  0
LINE
  8
Gravur
 62
   7
 39
0.200
  6
CONTINUOUS
 10
8.49000
 20
106.17800
 30
 0
 11
8.49000
 21
105.18600
  0
LINE
  8
Gravur
 62
   7
 39
0.200
  6
CONTINUOUS
 10
8.49000
 20
105.18600
 30
 0
 11
10.15400
 21
105.18600
  0
ARC
  8
Gravur
 62
   7
 39
0.200
  6
CONTINUOUS
 10
10.15601
 20
105.56799
 30
 0
 40
0.38200
 50
-90.30077
 51
0.30077
  0
LINE
  8
Gravur
 62
   7
 39
0.200
  6
CONTINUOUS
 10
10.53800
 20
105.57000
 30
 0
 11
10.53800
 21
105.79400
  0
ARC
  8
Gravur
 62
   7
 39
0.200
  6
CONTINUOUS
 10
10.15601
 20
105.79601
 30
 0
 40
0.38200
 50
-0.30077
 51
90.30077
  0
LINE
  8
Gravur
 62
   7
 39
0.200
  6
CONTINUOUS
 10
10.15400
 20
106.17800
 30
 0
 11
8.49000
 21
106.17800
  0
LINE
  8
Gravur
 62
   7
 39
0.200
  6
CONTINUOUS
 10
7.59400
 20
106.88200
 30
 0
 11
7.59400
 21
103.68200
  0
LINE
  8
Gravur
 62
   7
 39
0.200
  6
CONTINUOUS
 10
7.59400
 20
103.68200
 30
 0
 11
8.49000
 21
103.68200
  0
LINE
  8
Gravur
 62
   7
 39
0.200
  6
CONTINUOUS
 10
8.49000
 20
103.68200
 30
 0
 11
8.49000
 21
104.48200
  0
LINE
  8
Gravur
 62
   7
 39
0.200
  6
CONTINUOUS
 10
8.49000
 20
104.48200
 30
 0
 11
10.15400
 21
104.48200
  0
ARC
  8
Gravur
 62
   7
 39
0.200
  6
CONTINUOUS
 10
10.15601
 20
104.10001
 30
 0
 40
0.38200
 50
359.69923
 51
90.30077
  0
LINE
  8
Gravur
 62
   7
 39
0.200
  6
CONTINUOUS
 10
10.53800
 20
104.09800
 30
 0
 11
10.53800
 21
103.68200
  0
LINE
  8
Gravur
 62
   7
 39
0.200
  6
CONTINUOUS
 10
10.53800
 20
103.68200
 30
 0
 11
11.43400
 21
103.68200
  0
LINE
  8
Gravur
 62
   7
 39
0.200
  6
CONTINUOUS
 10
11.43400
 20
103.68200
 30
 0
 11
11.43400
 21
104.19400
  0
ARC
  8
Gravur
 62
   7
 39
0.200
  6
CONTINUOUS
 10
10.73100
 20
104.19290
 30
 0
 40
0.70300
 50
0.09004
 51
60.04713
  0
ARC
  8
Gravur
 62
   7
 39
0.200
  6
CONTINUOUS
 10
10.73100
 20
105.41110
 30
 0
 40
0.70300
 50
-60.04713
 51
-0.09004
  0
LINE
  8
Gravur
 62
   7
 39
0.200
  6
CONTINUOUS
 10
11.43400
 20
105.41000
 30
 0
 11
11.43400
 21
106.17800
  0
ARC
  8
Gravur
 62
   7
 39
0.200
  6
CONTINUOUS
 10
10.73401
 20
106.18201
 30
 0
 40
0.70000
 50
-0.32835
 51
90.32835
  0
LINE
  8
Gravur
 62
   7
 39
0.200
  6
CONTINUOUS
 10
10.73000
 20
106.88200
 30
 0
 11
7.59400
 21
106.88200
  0
LINE
  8
Gravur
 62
   7
 39
0.200
  6
CONTINUOUS
 10
12.39400
 20
106.88200
 30
 0
 11
12.39400
 21
103.68200
  0
LINE
  8
Gravur
 62
   7
 39
0.200
  6
CONTINUOUS
 10
12.39400
 20
103.68200
 30
 0
 11
13.29000
 21
103.68200
  0
LINE
  8
Gravur
 62
   7
 39
0.200
  6
CONTINUOUS
 10
13.29000
 20
103.68200
 30
 0
 11
13.29000
 21
106.17800
  0
LINE
  8
Gravur
 62
   7
 39
0.200
  6
CONTINUOUS
 10
13.29000
 20
106.17800
 30
 0
 11
13.35400
 21
106.17800
  0
LINE
  8
Gravur
 62
   7
 39
0.200
  6
CONTINUOUS
 10
13.35400
 20
106.17800
 30
 0
 11
14.47400
 21
103.68200
  0
LINE
  8
Gravur
 62
   7
 39
0.200
  6
CONTINUOUS
 10
14.47400
 20
103.68200
 30
 0
 11
15.43400
 21
103.68200
  0
LINE
  8
Gravur
 62
   7
 39
0.200
  6
CONTINUOUS
 10
15.43400
 20
103.68200
 30
 0
 11
16.55400
 21
106.17800
  0
LINE
  8
Gravur
 62
   7
 39
0.200
  6
CONTINUOUS
 10
16.55400
 20
106.17800
 30
 0
 11
16.61800
 21
106.17800
  0
LINE
  8
Gravur
 62
   7
 39
0.200
  6
CONTINUOUS
 10
16.61800
 20
106.17800
 30
 0
 11
16.61800
 21
103.68200
  0
LINE
  8
Gravur
 62
   7
 39
0.200
  6
CONTINUOUS
 10
16.61800
 20
103.68200
 30
 0
 11
17.51400
 21
103.68200
  0
LINE
  8
Gravur
 62
   7
 39
0.200
  6
CONTINUOUS
 10
17.51400
 20
103.68200
 30
 0
 11
17.51400
 21
106.88200
  0
LINE
  8
Gravur
 62
   7
 39
0.200
  6
CONTINUOUS
 10
17.51400
 20
106.88200
 30
 0
 11
15.97800
 21
106.88200
  0
LINE
  8
Gravur
 62
   7
 39
0.200
  6
CONTINUOUS
 10
15.97800
 20
106.88200
 30
 0
 11
14.95400
 21
104.61000
  0
LINE
  8
Gravur
 62
   7
 39
0.200
  6
CONTINUOUS
 10
14.95400
 20
104.61000
 30
 0
 11
13.93000
 21
106.88200
  0
LINE
  8
Gravur
 62
   7
 39
0.200
  6
CONTINUOUS
 10
13.93000
 20
106.88200
 30
 0
 11
12.39400
 21
106.88200
  0
LINE
  8
Gravur
 62
   7
 39
0.200
  6
CONTINUOUS
 10
19.37000
 20
104.64200
 30
 0
 11
18.47400
 21
104.64200
  0
LINE
  8
Gravur
 62
   7
 39
0.200
  6
CONTINUOUS
 10
18.47400
 20
104.64200
 30
 0
 11
18.47400
 21
104.38600
  0
ARC
  8
Gravur
 62
   7
 39
0.200
  6
CONTINUOUS
 10
19.16479
 20
104.40313
 30
 0
 40
0.69100
 50
-178.57940
 51
-94.21497
  0
ARC
  8
Gravur
 62
   7
 39
0.200
  6
CONTINUOUS
 10
20.39400
 20
117.23053
 30
 0
 40
13.57700
 50
-95.40971
 51
-84.59029
  0
ARC
  8
Gravur
 62
   7
 39
0.200
  6
CONTINUOUS
 10
21.62321
 20
104.40313
 30
 0
 40
0.69100
 50
-85.78503
 51
-1.42060
  0
LINE
  8
Gravur
 62
   7
 39
0.200
  6
CONTINUOUS
 10
22.31400
 20
104.38600
 30
 0
 11
22.31400
 21
104.89800
  0
ARC
  8
Gravur
 62
   7
 39
0.200
  6
CONTINUOUS
 10
21.61000
 20
104.89873
 30
 0
 40
0.70400
 50
-0.05922
 51
87.39478
  0
LINE
  8
Gravur
 62
   7
 39
0.200
  6
CONTINUOUS
 10
21.64200
 20
105.60200
 30
 0
 11
19.62600
 21
105.66600
  0
ARC
  8
Gravur
 62
   7
 39
0.200
  6
CONTINUOUS
 10
19.62600
 20
105.92200
 30
 0
 40
0.25600
 50
90.00000
 51
-90.00000
  0
LINE
  8
Gravur
 62
   7
 39
0.200
  6
CONTINUOUS
 10
19.62600
 20
106.17800
 30
 0
 11
21.16200
 21
106.17800
  0
ARC
  8
Gravur
 62
   7
 39
0.200
  6
CONTINUOUS
 10
21.16300
 20
105.92300
 30
 0
 40
0.25500
 50
359.77487
 51
90.22513
  0
LINE
  8
Gravur
 62
   7
 39
0.200
  6
CONTINUOUS
 10
21.41800
 20
105.92200
 30
 0
 11
22.31400
 21
105.92200
  0
LINE
  8
Gravur
 62
   7
 39
0.200
  6
CONTINUOUS
 10
22.31400
 20
105.92200
 30
 0
 11
22.31400
 21
106.17800
  0
ARC
  8
Gravur
 62
   7
 39
0.200
  6
CONTINUOUS
 10
21.62321
 20
106.16087
 30
 0
 40
0.69100
 50
1.42060
 51
85.78503
  0
ARC
  8
Gravur
 62
   7
 39
0.200
  6
CONTINUOUS
 10
20.39400
 20
93.33347
 30
 0
 40
13.57700
 50
84.59029
 51
95.40971
  0
ARC
  8
Gravur
 62
   7
 39
0.200
  6
CONTINUOUS
 10
19.18200
 20
106.14527
 30
 0
 40
0.70800
 50
95.51145
 51
179.94117
  0
LINE
  8
Gravur
 62
   7
 39
0.200
  6
CONTINUOUS
 10
18.47400
 20
106.14600
 30
 0
 11
18.47400
 21
105.69800
  0
ARC
  8
Gravur
 62
   7
 39
0.200
  6
CONTINUOUS
 10
19.17800
 20
105.69727
 30
 0
 40
0.70400
 50
179.94078
 51
267.39478
  0
LINE
  8
Gravur
 62
   7
 39
0.200
  6
CONTINUOUS
 10
19.14600
 20
104.99400
 30
 0
 11
21.16200
 21
104.93000
  0
ARC
  8
Gravur
 62
   7
 39
0.200
  6
CONTINUOUS
 10
21.16200
 20
104.65800
 30
 0
 40
0.27200
 50
270.00000
 51
90.00000
  0
LINE
  8
Gravur
 62
   7
 39
0.200
  6
CONTINUOUS
 10
21.16200
 20
104.38600
 30
 0
 11
19.62600
 21
104.38600
  0
ARC
  8
Gravur
 62
   7
 39
0.200
  6
CONTINUOUS
 10
19.62500
 20
104.64100
 30
 0
 40
0.25500
 50
179.77487
 51
-89.77487
  0
ARC
  8
Gravur
 62
   7
 39
0.200
  6
CONTINUOUS
 10
9.39294
 20
93.93656
 30
 0
 40
0.60500
 50
179.20086
 51
230.60868
  0
ARC
  8
Gravur
 62
   7
 39
0.200
  6
CONTINUOUS
 10
9.69385
 20
94.30926
 30
 0
 40
1.08400
 50
-129.18186
 51
-64.23782
  0
ARC
  8
Gravur
 62
   7
 39
0.200
  6
CONTINUOUS
 10
9.91606
 20
93.88551
 30
 0
 40
0.60600
 50
-65.74537
 51
-0.80441
  0
ARC
  8
Gravur
 62
   7
 39
0.200
  6
CONTINUOUS
 10
9.97200
 20
93.87748
 30
 0
 40
0.55000
 50
-0.05042
 51
73.19649
  0
LINE
  8
Gravur
 62
   7
 39
0.200
  6
CONTINUOUS
 10
10.13100
 20
94.40400
 30
 0
 11
9.17900
 21
94.60800
  0
ARC
  8
Gravur
 62
   7
 39
0.200
  6
CONTINUOUS
 10
9.33800
 20
95.13452
 30
 0
 40
0.55000
 50
179.94958
 51
-106.80351
  0
ARC
  8
Gravur
 62
   7
 39
0.200
  6
CONTINUOUS
 10
9.39394
 20
95.12649
 30
 0
 40
0.60600
 50
474.25463
 51
179.19559
  0
ARC
  8
Gravur
 62
   7
 39
0.200
  6
CONTINUOUS
 10
9.61615
 20
94.70274
 30
 0
 40
1.08400
 50
410.81814
 51
115.76218
  0
ARC
  8
Gravur
 62
   7
 39
0.200
  6
CONTINUOUS
 10
9.91706
 20
95.07544
 30
 0
 40
0.60500
 50
359.20086
 51
50.60868
  0
LINE
  8
Gravur
 62
   7
 39
0.200
  6
CONTINUOUS
 10
10.89600
 20
95.93400
 30
 0
 11
10.89600
 21
95.79800
  0
LINE
  8
Gravur
 62
   7
 39
0.200
  6
CONTINUOUS
 10
10.89600
 20
94.96500
 30
 0
 11
10.89600
 21
93.26500
  0
LINE
  8
Gravur
 62
   7
 39
0.200
  6
CONTINUOUS
 10
12.76600
 20
94.96500
 30
 0
 11
12.76600
 21
94.01300
  0
ARC
  8
Gravur
 62
   7
 39
0.200
  6
CONTINUOUS
 10
12.02015
 20
93.99785
 30
 0
 40
0.74600
 50
190.64825
 51
1.16403
  0
ARC
  8
Gravur
 62
   7
 39
0.200
  6
CONTINUOUS
 10
12.75850
 20
94.14050
 30
 0
 40
1.49800
 50
169.20768
 51
-169.20768
  0
ARC
  8
Gravur
 62
   7
 39
0.200
  6
CONTINUOUS
 10
12.02000
 20
94.28236
 30
 0
 40
0.74600
 50
360.20252
 51
169.28988
  0
LINE
  8
Gravur
 62
   7
 39
0.200
  6
CONTINUOUS
 10
12.76600
 20
94.28500
 30
 0
 11
12.76600
 21
93.19700
  0
ARC
  8
Gravur
 62
   7
 39
0.200
  6
CONTINUOUS
 10
12.15208
 20
93.18698
 30
 0
 40
0.61400
 50
281.35779
 51
0.93546
  0
ARC
  8
Gravur
 62
   7
 39
0.200
  6
CONTINUOUS
 10
12.01800
 20
93.92190
 30
 0
 40
1.36100
 50
259.20111
 51
-79.20111
  0
ARC
  8
Gravur
 62
   7
 39
0.200
  6
CONTINUOUS
 10
11.88379
 20
93.18802
 30
 0
 40
0.61500
 50
210.70414
 51
-101.32656
  0
LINE
  8
Gravur
 62
   7
 39
0.200
  6
CONTINUOUS
 10
13.14000
 20
94.96500
 30
 0
 11
13.14000
 21
93.26500
  0
LINE
  8
Gravur
 62
   7
 39
0.200
  6
CONTINUOUS
 10
13.14000
 20
93.26500
 30
 0
 11
13.14000
 21
94.28500
  0
ARC
  8
Gravur
 62
   7
 39
0.200
  6
CONTINUOUS
 10
13.88399
 20
94.28901
 30
 0
 40
0.74400
 50
89.69112
 51
-179.69112
  0
ARC
  8
Gravur
 62
   7
 39
0.200
  6
CONTINUOUS
 10
13.89101
 20
94.49201
 30
 0
 40
0.54100
 50
359.68139
 51
90.31861
  0
LINE
  8
Gravur
 62
   7
 39
0.200
  6
CONTINUOUS
 10
14.43200
 20
94.48900
 30
 0
 11
14.43200
 21
93.26500
  0
ARC
  8
Gravur
 62
   7
 39
0.200
  6
CONTINUOUS
 10
15.39587
 20
94.55415
 30
 0
 40
0.47900
 50
451.42053
 51
169.43163
  0
LINE
  8
Gravur
 62
   7
 39
0.200
  6
CONTINUOUS
 10
15.38400
 20
95.03300
 30
 0
 11
15.58800
 21
95.03300
  0
ARC
  8
Gravur
 62
   7
 39
0.200
  6
CONTINUOUS
 10
15.59101
 20
94.56001
 30
 0
 40
0.47300
 50
359.63544
 51
90.36456
  0
LINE
  8
Gravur
 62
   7
 39
0.200
  6
CONTINUOUS
 10
16.06400
 20
94.55700
 30
 0
 11
16.06400
 21
93.87700
  0
ARC
  8
Gravur
 62
   7
 39
0.200
  6
CONTINUOUS
 10
15.25505
 20
94.03894
 30
 0
 40
0.82500
 50
270.69105
 51
-11.32014
  0
ARC
  8
Gravur
 62
   7
 39
0.200
  6
CONTINUOUS
 10
15.26199
 20
93.68699
 30
 0
 40
0.47300
 50
179.63544
 51
-89.63544
  0
ARC
  8
Gravur
 62
   7
 39
0.200
  6
CONTINUOUS
 10
15.19696
 20
93.69570
 30
 0
 40
0.40800
 50
99.58840
 51
-179.19954
  0
LINE
  8
Gravur
 62
   7
 39
0.200
  6
CONTINUOUS
 10
15.12900
 20
94.09800
 30
 0
 11
15.89400
 21
94.23400
  0
ARC
  8
Gravur
 62
   7
 39
0.200
  6
CONTINUOUS
 10
15.86599
 20
94.43607
 30
 0
 40
0.20400
 50
-82.10785
 51
-13.91772
  0
LINE
  8
Gravur
 62
   7
 39
0.200
  6
CONTINUOUS
 10
16.06400
 20
94.38700
 30
 0
 11
16.06400
 21
93.53700
  0
ARC
  8
Gravur
 62
   7
 39
0.200
  6
CONTINUOUS
 10
16.33500
 20
93.53600
 30
 0
 40
0.27100
 50
179.78818
 51
270.21182
  0
LINE
  8
Gravur
 62
   7
 39
0.200
  6
CONTINUOUS
 10
16.71000
 20
95.71300
 30
 0
 11
16.71000
 21
94.48900
  0
LINE
  8
Gravur
 62
   7
 39
0.200
  6
CONTINUOUS
 10
16.71000
 20
94.48900
 30
 0
 11
16.71000
 21
93.26500
  0
LINE
  8
Gravur
 62
   7
 39
0.200
  6
CONTINUOUS
 10
6.34000
 20
82.28800
 30
 0
 11
6.34000
 21
82.56000
  0
ARC
  8
Gravur
 62
   7
 39
0.200
  6
CONTINUOUS
 10
7.63091
 20
82.57507
 30
 0
 40
1.29100
 50
159.08185
 51
-179.33120
  0
ARC
  8
Gravur
 62
   7
 39
0.200
  6
CONTINUOUS
 10
7.42800
 20
82.60928
 30
 0
 40
1.09000
 50
383.04708
 51
156.95292
  0
ARC
  8
Gravur
 62
   7
 39
0.200
  6
CONTINUOUS
 10
7.23334
 20
82.53043
 30
 0
 40
1.30000
 50
361.30341
 51
22.88611
  0
LINE
  8
Gravur
 62
   7
 39
0.200
  6
CONTINUOUS
 10
8.53300
 20
82.56000
 30
 0
 11
8.53300
 21
82.28800
  0
ARC
  8
Gravur
 62
   7
 39
0.200
  6
CONTINUOUS
 10
7.23334
 20
82.31757
 30
 0
 40
1.30000
 50
337.11389
 51
-1.30341
  0
ARC
  8
Gravur
 62
   7
 39
0.200
  6
CONTINUOUS
 10
7.42800
 20
82.23872
 30
 0
 40
1.09000
 50
203.04708
 51
-23.04708
  0
ARC
  8
Gravur
 62
   7
 39
0.200
  6
CONTINUOUS
 10
7.63091
 20
82.27293
 30
 0
 40
1.29100
 50
179.33120
 51
-159.08185
  0
LINE
  8
Gravur
 62
   7
 39
0.200
  6
CONTINUOUS
 10
8.89000
 20
82.90000
 30
 0
 11
9.50200
 21
81.20000
  0
LINE
  8
Gravur
 62
   7
 39
0.200
  6
CONTINUOUS
 10
9.50200
 20
81.20000
 30
 0
 11
9.57000
 21
81.20000
  0
LINE
  8
Gravur
 62
   7
 39
0.200
  6
CONTINUOUS
 10
9.57000
 20
81.20000
 30
 0
 11
10.18200
 21
82.90000
  0
LINE
  8
Gravur
 62
   7
 39
0.200
  6
CONTINUOUS
 10
10.57300
 20
82.10100
 30
 0
 11
12.06900
 21
82.10100
  0
LINE
  8
Gravur
 62
   7
 39
0.200
  6
CONTINUOUS
 10
12.06900
 20
82.10100
 30
 0
 11
12.06900
 21
82.23700
  0
ARC
  8
Gravur
 62
   7
 39
0.200
  6
CONTINUOUS
 10
11.32300
 20
82.23436
 30
 0
 40
0.74600
 50
0.20252
 51
169.28988
  0
ARC
  8
Gravur
 62
   7
 39
0.200
  6
CONTINUOUS
 10
12.06150
 20
82.09250
 30
 0
 40
1.49800
 50
169.20768
 51
190.79232
  0
ARC
  8
Gravur
 62
   7
 39
0.200
  6
CONTINUOUS
 10
11.38738
 20
81.96000
 30
 0
 40
0.81100
 50
-169.48524
 51
-89.88567
  0
ARC
  8
Gravur
 62
   7
 39
0.200
  6
CONTINUOUS
 10
11.38661
 20
81.97000
 30
 0
 40
0.82100
 50
-89.83333
 51
-31.58395
  0
LINE
  8
Gravur
 62
   7
 39
0.200
  6
CONTINUOUS
 10
12.46000
 20
82.90000
 30
 0
 11
12.46000
 21
81.20000
  0
LINE
  8
Gravur
 62
   7
 39
0.200
  6
CONTINUOUS
 10
12.46000
 20
81.20000
 30
 0
 11
12.46000
 21
82.22000
  0
ARC
  8
Gravur
 62
   7
 39
0.200
  6
CONTINUOUS
 10
13.21900
 20
82.21746
 30
 0
 40
0.75900
 50
458.56171
 51
179.80812
  0
LINE
  8
Gravur
 62
   7
 39
0.200
  6
CONTINUOUS
 10
13.48000
 20
83.64800
 30
 0
 11
13.48000
 21
82.42400
  0
LINE
  8
Gravur
 62
   7
 39
0.200
  6
CONTINUOUS
 10
13.48000
 20
82.42400
 30
 0
 11
13.48000
 21
81.20000
  0
ARC
  8
Gravur
 62
   7
 39
0.200
  6
CONTINUOUS
 10
15.35950
 20
82.09250
 30
 0
 40
1.49800
 50
169.20768
 51
-169.20768
  0
ARC
  8
Gravur
 62
   7
 39
0.200
  6
CONTINUOUS
 10
14.61900
 20
82.23453
 30
 0
 40
0.74400
 50
370.72648
 51
169.27352
  0
ARC
  8
Gravur
 62
   7
 39
0.200
  6
CONTINUOUS
 10
13.87850
 20
82.09250
 30
 0
 40
1.49800
 50
349.20768
 51
10.79232
  0
ARC
  8
Gravur
 62
   7
 39
0.200
  6
CONTINUOUS
 10
14.61900
 20
81.95047
 30
 0
 40
0.74400
 50
190.72648
 51
-10.72648
  0
ARC
  8
Gravur
 62
   7
 39
0.200
  6
CONTINUOUS
 10
16.34787
 20
82.48915
 30
 0
 40
0.47900
 50
451.42053
 51
169.43163
  0
LINE
  8
Gravur
 62
   7
 39
0.200
  6
CONTINUOUS
 10
16.33600
 20
82.96800
 30
 0
 11
16.54000
 21
82.96800
  0
ARC
  8
Gravur
 62
   7
 39
0.200
  6
CONTINUOUS
 10
16.54301
 20
82.49501
 30
 0
 40
0.47300
 50
359.63544
 51
90.36456
  0
LINE
  8
Gravur
 62
   7
 39
0.200
  6
CONTINUOUS
 10
17.01600
 20
82.49200
 30
 0
 11
17.01600
 21
81.81200
  0
ARC
  8
Gravur
 62
   7
 39
0.200
  6
CONTINUOUS
 10
16.20705
 20
81.97394
 30
 0
 40
0.82500
 50
270.69105
 51
-11.32014
  0
ARC
  8
Gravur
 62
   7
 39
0.200
  6
CONTINUOUS
 10
16.21399
 20
81.62199
 30
 0
 40
0.47300
 50
179.63544
 51
-89.63544
  0
ARC
  8
Gravur
 62
   7
 39
0.200
  6
CONTINUOUS
 10
16.14896
 20
81.63070
 30
 0
 40
0.40800
 50
99.58840
 51
-179.19954
  0
LINE
  8
Gravur
 62
   7
 39
0.200
  6
CONTINUOUS
 10
16.08100
 20
82.03300
 30
 0
 11
16.84600
 21
82.16900
  0
ARC
  8
Gravur
 62
   7
 39
0.200
  6
CONTINUOUS
 10
16.81799
 20
82.37107
 30
 0
 40
0.20400
 50
-82.10785
 51
-13.91772
  0
LINE
  8
Gravur
 62
   7
 39
0.200
  6
CONTINUOUS
 10
17.01600
 20
82.32200
 30
 0
 11
17.01600
 21
81.47200
  0
ARC
  8
Gravur
 62
   7
 39
0.200
  6
CONTINUOUS
 10
17.28700
 20
81.47100
 30
 0
 40
0.27100
 50
179.78818
 51
270.21182
  0
LINE
  8
Gravur
 62
   7
 39
0.200
  6
CONTINUOUS
 10
19.15800
 20
83.64800
 30
 0
 11
19.15800
 21
82.42400
  0
LINE
  8
Gravur
 62
   7
 39
0.200
  6
CONTINUOUS
 10
19.15800
 20
82.42400
 30
 0
 11
19.15800
 21
81.20000
  0
LINE
  8
Gravur
 62
   7
 39
0.200
  6
CONTINUOUS
 10
19.15800
 20
81.20000
 30
 0
 11
19.15800
 21
82.22000
  0
ARC
  8
Gravur
 62
   7
 39
0.200
  6
CONTINUOUS
 10
18.41200
 20
82.21736
 30
 0
 40
0.74600
 50
0.20252
 51
169.28988
  0
ARC
  8
Gravur
 62
   7
 39
0.200
  6
CONTINUOUS
 10
19.15050
 20
82.07550
 30
 0
 40
1.49800
 50
169.20768
 51
190.79232
  0
ARC
  8
Gravur
 62
   7
 39
0.200
  6
CONTINUOUS
 10
18.41215
 20
81.93285
 30
 0
 40
0.74600
 50
-169.35175
 51
1.16403
  0
ARC
  8
Gravur
 62
   7
 39
0.200
  6
CONTINUOUS
 10
10.42900
 20
41.96888
 30
 0
 40
1.28200
 50
23.00997
 51
156.99003
  0
ARC
  8
Gravur
 62
   7
 39
0.200
  6
CONTINUOUS
 10
10.66790
 20
41.92770
 30
 0
 40
1.51900
 50
159.08312
 51
180.66753
  0
LINE
  8
Gravur
 62
   7
 39
0.200
  6
CONTINUOUS
 10
9.14900
 20
41.91000
 30
 0
 11
9.14900
 21
41.59000
  0
ARC
  8
Gravur
 62
   7
 39
0.200
  6
CONTINUOUS
 10
10.66790
 20
41.57230
 30
 0
 40
1.51900
 50
179.33247
 51
200.91688
  0
ARC
  8
Gravur
 62
   7
 39
0.200
  6
CONTINUOUS
 10
10.42900
 20
41.53112
 30
 0
 40
1.28200
 50
-156.99003
 51
-23.00997
  0
ARC
  8
Gravur
 62
   7
 39
0.200
  6
CONTINUOUS
 10
10.20039
 20
41.62470
 30
 0
 40
1.52900
 50
-22.88905
 51
-1.30046
  0
LINE
  8
Gravur
 62
   7
 39
0.200
  6
CONTINUOUS
 10
11.72900
 20
41.59000
 30
 0
 11
10.60900
 21
41.59000
  0
LINE
  8
Gravur
 62
   7
 39
0.200
  6
CONTINUOUS
 10
10.60900
 20
41.59000
 30
 0
 11
11.72900
 21
41.59000
  0
LINE
  8
Gravur
 62
   7
 39
0.200
  6
CONTINUOUS
 10
11.72900
 20
41.59000
 30
 0
 11
11.72900
 21
40.31000
  0
ARC
  8
Gravur
 62
   7
 39
0.200
  6
CONTINUOUS
 10
12.84253
 20
41.82716
 30
 0
 40
0.56300
 50
451.37688
 51
169.47528
  0
LINE
  8
Gravur
 62
   7
 39
0.200
  6
CONTINUOUS
 10
12.82900
 20
42.39000
 30
 0
 11
13.06900
 21
42.39000
  0
ARC
  8
Gravur
 62
   7
 39
0.200
  6
CONTINUOUS
 10
13.07201
 20
41.83301
 30
 0
 40
0.55700
 50
359.69057
 51
90.30943
  0
LINE
  8
Gravur
 62
   7
 39
0.200
  6
CONTINUOUS
 10
13.62900
 20
41.83000
 30
 0
 11
13.62900
 21
41.03000
  0
ARC
  8
Gravur
 62
   7
 39
0.200
  6
CONTINUOUS
 10
12.67778
 20
41.21994
 30
 0
 40
0.97000
 50
270.66292
 51
-11.29201
  0
ARC
  8
Gravur
 62
   7
 39
0.200
  6
CONTINUOUS
 10
12.68599
 20
40.80699
 30
 0
 40
0.55700
 50
179.69057
 51
-89.69057
  0
ARC
  8
Gravur
 62
   7
 39
0.200
  6
CONTINUOUS
 10
12.60895
 20
40.81671
 30
 0
 40
0.48000
 50
99.58840
 51
-179.19954
  0
LINE
  8
Gravur
 62
   7
 39
0.200
  6
CONTINUOUS
 10
12.52900
 20
41.29000
 30
 0
 11
13.42900
 21
41.45000
  0
ARC
  8
Gravur
 62
   7
 39
0.200
  6
CONTINUOUS
 10
13.39605
 20
41.68773
 30
 0
 40
0.24000
 50
-82.10785
 51
-13.91772
  0
LINE
  8
Gravur
 62
   7
 39
0.200
  6
CONTINUOUS
 10
13.62900
 20
41.63000
 30
 0
 11
13.62900
 21
40.63000
  0
ARC
  8
Gravur
 62
   7
 39
0.200
  6
CONTINUOUS
 10
13.94699
 20
40.62799
 30
 0
 40
0.31800
 50
179.63851
 51
270.36149
  0
LINE
  8
Gravur
 62
   7
 39
0.200
  6
CONTINUOUS
 10
14.38900
 20
43.45000
 30
 0
 11
14.38900
 21
43.29000
  0
LINE
  8
Gravur
 62
   7
 39
0.200
  6
CONTINUOUS
 10
14.38900
 20
42.31000
 30
 0
 11
14.38900
 21
40.31000
  0
LINE
  8
Gravur
 62
   7
 39
0.200
  6
CONTINUOUS
 10
14.82900
 20
42.31000
 30
 0
 11
14.82900
 21
40.31000
  0
LINE
  8
Gravur
 62
   7
 39
0.200
  6
CONTINUOUS
 10
14.82900
 20
40.31000
 30
 0
 11
14.82900
 21
41.51000
  0
ARC
  8
Gravur
 62
   7
 39
0.200
  6
CONTINUOUS
 10
15.70399
 20
41.51501
 30
 0
 40
0.87500
 50
89.67165
 51
-179.67165
  0
ARC
  8
Gravur
 62
   7
 39
0.200
  6
CONTINUOUS
 10
15.71201
 20
41.75301
 30
 0
 40
0.63700
 50
359.72952
 51
90.27048
  0
LINE
  8
Gravur
 62
   7
 39
0.200
  6
CONTINUOUS
 10
16.34900
 20
41.75000
 30
 0
 11
16.34900
 21
40.31000
  0
LINE
  8
Gravur
 62
   7
 39
0.200
  6
CONTINUOUS
 10
20.76100
 20
47.81900
 30
 0
 11
19.41800
 21
49.16200
  0
LINE
  8
Gravur
 62
   7
 39
0.200
  6
CONTINUOUS
 10
23.54200
 20
52.35700
 30
 0
 11
21.73500
 21
52.94400
  0
LINE
  8
Gravur
 62
   7
 39
0.200
  6
CONTINUOUS
 10
23.96000
 20
57.66300
 30
 0
 11
22.08300
 21
57.36600
  0
LINE
  8
Gravur
 62
   7
 39
0.200
  6
CONTINUOUS
 10
21.92300
 20
62.58100
 30
 0
 11
20.38600
 21
61.46400
  0
LINE
  8
Gravur
 62
   7
 39
0.200
  6
CONTINUOUS
 10
17.87600
 20
66.03700
 30
 0
 11
17.01300
 21
64.34500
  0
LINE
  8
Gravur
 62
   7
 39
0.200
  6
CONTINUOUS
 10
12.70000
 20
67.28000
 30
 0
 11
12.70000
 21
65.38000
  0
LINE
  8
Gravur
 62
   7
 39
0.200
  6
CONTINUOUS
 10
7.52400
 20
66.03700
 30
 0
 11
8.38700
 21
64.34500
  0
LINE
  8
Gravur
 62
   7
 39
0.200
  6
CONTINUOUS
 10
3.47700
 20
62.58100
 30
 0
 11
5.01400
 21
61.46400
  0
LINE
  8
Gravur
 62
   7
 39
0.200
  6
CONTINUOUS
 10
1.44000
 20
57.66300
 30
 0
 11
3.31700
 21
57.36600
  0
LINE
  8
Gravur
 62
   7
 39
0.200
  6
CONTINUOUS
 10
1.85800
 20
52.35700
 30
 0
 11
3.66500
 21
52.94400
  0
LINE
  8
Gravur
 62
   7
 39
0.200
  6
CONTINUOUS
 10
5.98200
 20
49.16200
 30
 0
 11
4.63900
 21
47.81900
  0
LINE
  8
Gravur
 62
   7
 39
0.200
  6
CONTINUOUS
 10
21.77200
 20
50.32100
 30
 0
 11
20.80000
 21
50.91600
  0
LINE
  8
Gravur
 62
   7
 39
0.200
  6
CONTINUOUS
 10
23.30700
 20
55.04500
 30
 0
 11
22.17100
 21
55.13500
  0
LINE
  8
Gravur
 62
   7
 39
0.200
  6
CONTINUOUS
 10
22.53000
 20
59.95200
 30
 0
 11
21.47700
 21
59.51500
  0
LINE
  8
Gravur
 62
   7
 39
0.200
  6
CONTINUOUS
 10
19.61000
 20
63.97100
 30
 0
 11
18.87000
 21
63.10400
  0
LINE
  8
Gravur
 62
   7
 39
0.200
  6
CONTINUOUS
 10
15.18400
 20
66.22600
 30
 0
 11
14.91800
 21
65.11700
  0
LINE
  8
Gravur
 62
   7
 39
0.200
  6
CONTINUOUS
 10
10.21600
 20
66.22600
 30
 0
 11
10.48200
 21
65.11700
  0
LINE
  8
Gravur
 62
   7
 39
0.200
  6
CONTINUOUS
 10
5.79000
 20
63.97100
 30
 0
 11
6.53000
 21
63.10400
  0
LINE
  8
Gravur
 62
   7
 39
0.200
  6
CONTINUOUS
 10
2.87000
 20
59.95200
 30
 0
 11
3.92300
 21
59.51500
  0
LINE
  8
Gravur
 62
   7
 39
0.200
  6
CONTINUOUS
 10
2.09300
 20
55.04500
 30
 0
 11
3.22900
 21
55.13500
  0
LINE
  8
Gravur
 62
   7
 39
0.200
  6
CONTINUOUS
 10
4.60000
 20
50.91600
 30
 0
 11
3.62800
 21
50.32100
  0
CIRCLE
  8
Kontur
 62
   7
 39
0.200
  6
CONTINUOUS
 10
12.81100
 20
55.94000
 30
 0
 40
4.50000
  0
CIRCLE
  8
Kontur
 62
   7
 39
0.200
  6
CONTINUOUS
 10
12.65000
 20
89.43500
 30
 0
 40
1.50000
  0
CIRCLE
  8
Kontur
 62
   7
 39
0.200
  6
CONTINUOUS
 10
12.67500
 20
25.30000
 30
 0
 40
3.80000
  0
CIRCLE
  8
Kontur
 62
   7
 39
0.200
  6
CONTINUOUS
 10
12.65000
 20
77.37000
 30
 0
 40
1.50000
  0
ARC
  8
Kontur
 62
   7
 39
0.200
  6
CONTINUOUS
 10
5.61193
 20
3.65000
 30
 0
 40
1.00000
 50
449.99581
 51
160.54904
  0
LINE
  8
Kontur
 62
   7
 39
0.200
  6
CONTINUOUS
 10
5.61200
 20
4.65000
 30
 0
 11
9.28800
 21
4.65000
  0
ARC
  8
Kontur
 62
   7
 39
0.200
  6
CONTINUOUS
 10
9.28807
 20
3.65000
 30
 0
 40
1.00000
 50
379.45096
 51
90.00419
  0
ARC
  8
Kontur
 62
   7
 39
0.200
  6
CONTINUOUS
 10
7.44960
 20
3.00000
 30
 0
 40
2.95000
 50
340.53565
 51
19.46435
  0
ARC
  8
Kontur
 62
   7
 39
0.200
  6
CONTINUOUS
 10
9.28807
 20
2.35000
 30
 0
 40
1.00000
 50
269.99581
 51
-19.45096
  0
LINE
  8
Kontur
 62
   7
 39
0.200
  6
CONTINUOUS
 10
9.28800
 20
1.35000
 30
 0
 11
5.61200
 21
1.35000
  0
ARC
  8
Kontur
 62
   7
 39
0.200
  6
CONTINUOUS
 10
5.61193
 20
2.35000
 30
 0
 40
1.00000
 50
199.45096
 51
-89.99581
  0
ARC
  8
Kontur
 62
   7
 39
0.200
  6
CONTINUOUS
 10
7.45040
 20
3.00000
 30
 0
 40
2.95000
 50
160.53565
 51
-160.53565
  0
ARC
  8
Kontur
 62
   7
 39
0.200
  6
CONTINUOUS
 10
5.61193
 20
126.05000
 30
 0
 40
1.00000
 50
449.99581
 51
160.54904
  0
LINE
  8
Kontur
 62
   7
 39
0.200
  6
CONTINUOUS
 10
5.61200
 20
127.05000
 30
 0
 11
9.28800
 21
127.05000
  0
ARC
  8
Kontur
 62
   7
 39
0.200
  6
CONTINUOUS
 10
9.28807
 20
126.05000
 30
 0
 40
1.00000
 50
379.45096
 51
90.00419
  0
ARC
  8
Kontur
 62
   7
 39
0.200
  6
CONTINUOUS
 10
7.44960
 20
125.40000
 30
 0
 40
2.95000
 50
340.53565
 51
19.46435
  0
ARC
  8
Kontur
 62
   7
 39
0.200
  6
CONTINUOUS
 10
9.28807
 20
124.75000
 30
 0
 40
1.00000
 50
269.99581
 51
-19.45096
  0
LINE
  8
Kontur
 62
   7
 39
0.200
  6
CONTINUOUS
 10
9.28800
 20
123.75000
 30
 0
 11
5.61200
 21
123.75000
  0
ARC
  8
Kontur
 62
   7
 39
0.200
  6
CONTINUOUS
 10
5.61193
 20
124.75000
 30
 0
 40
1.00000
 50
199.45096
 51
-89.99581
  0
ARC
  8
Kontur
 62
   7
 39
0.200
  6
CONTINUOUS
 10
7.45040
 20
125.40000
 30
 0
 40
2.95000
 50
160.53565
 51
-160.53565
  0
CIRCLE
  8
Kontur
 62
   7
 39
0.200
  6
CONTINUOUS
 10
7.45000
 20
14.70000
 30
 0
 40
2.50000
  0
CIRCLE
  8
Kontur
 62
   7
 39
0.200
  6
CONTINUOUS
 10
7.45000
 20
14.70000
 30
 0
 40
1.35000
  0
CIRCLE
  8
Kontur
 62
   7
 39
0.200
  6
CONTINUOUS
 10
7.45000
 20
113.70000
 30
 0
 40
2.50000
  0
CIRCLE
  8
Kontur
 62
   7
 39
0.200
  6
CONTINUOUS
 10
7.45000
 20
113.70000
 30
 0
 40
1.35000
  0
ENDSEC
  0
EOF
