  0
SECTION
  2
HEADER
  0
ENDSEC
  0
SECTION
  2
TABLES
  0
TABLE
  2
LTYPE
 70
     1
  0
LTYPE
  2
CONTINUOUS
 70
    64
  3
Ausgezogene Linie
 72
    65
 73
     0
 40
0.0
  0
ENDTAB
  0
TABLE
  2
LAYER
 70
     3
  0
LAYER
  2
Kontur
 70
    64
 62
     7
  6
CONTINUOUS
  0
LAYER
  2
Gravur
 70
    64
 62
     7
  6
CONTINUOUS
  0
LAYER
  2
Bezugspunkte
 70
    64
 62
     1
  6
CONTINUOUS
  0
ENDTAB
  0
TABLE
  2
STYLE
 70
     1
  0
STYLE
  2
TXT
 70
    64
 40
0.0
 41
1.0
 50
0.0
 71
     0
 42
3.500000
  3
TXT
  0
ENDTAB
  0
ENDSEC
  0
SECTION
  2
BLOCKS
  0
ENDSEC
  0
SECTION
  2
ENTITIES
  0
LINE
  8
Kontur
 62
   7
 39
0.100
  6
CONTINUOUS
 10
30.31000
 20
128.40000
 30
 0
 11
0.00000
 21
128.40000
  0
LINE
  8
Kontur
 62
   7
 39
0.100
  6
CONTINUOUS
 10
0.00000
 20
128.40000
 30
 0
 11
0.00000
 21
128.40000
  0
LINE
  8
Kontur
 62
   7
 39
0.100
  6
CONTINUOUS
 10
0.00000
 20
128.40000
 30
 0
 11
0.00000
 21
0.00000
  0
LINE
  8
Kontur
 62
   7
 39
0.100
  6
CONTINUOUS
 10
0.00000
 20
0.00000
 30
 0
 11
0.00000
 21
0.00000
  0
LINE
  8
Kontur
 62
   7
 39
0.100
  6
CONTINUOUS
 10
0.00000
 20
0.00000
 30
 0
 11
60.62000
 21
0.00000
  0
LINE
  8
Kontur
 62
   7
 39
0.100
  6
CONTINUOUS
 10
60.62000
 20
0.00000
 30
 0
 11
60.62000
 21
0.00000
  0
LINE
  8
Kontur
 62
   7
 39
0.100
  6
CONTINUOUS
 10
60.62000
 20
0.00000
 30
 0
 11
60.62000
 21
128.40000
  0
LINE
  8
Kontur
 62
   7
 39
0.100
  6
CONTINUOUS
 10
60.62000
 20
128.40000
 30
 0
 11
60.62000
 21
128.40000
  0
LINE
  8
Kontur
 62
   7
 39
0.100
  6
CONTINUOUS
 10
60.62000
 20
128.40000
 30
 0
 11
30.31000
 21
128.40000
  0
LINE
  8
Gravur
 62
   7
 39
0.200
  6
CONTINUOUS
 10
18.62600
 20
116.45600
 30
 0
 11
19.45800
 21
116.45600
  0
ARC
  8
Gravur
 62
   7
 39
0.200
  6
CONTINUOUS
 10
16.05768
 20
116.27757
 30
 0
 40
3.40500
 50
3.00385
 51
8.41734
  0
ARC
  8
Gravur
 62
   7
 39
0.200
  6
CONTINUOUS
 10
18.82071
 20
116.74671
 30
 0
 40
0.60600
 50
2.77053
 51
87.22947
  0
ARC
  8
Gravur
 62
   7
 39
0.200
  6
CONTINUOUS
 10
17.85800
 20
96.36643
 30
 0
 40
21.00900
 50
87.29361
 51
92.70639
  0
ARC
  8
Gravur
 62
   7
 39
0.200
  6
CONTINUOUS
 10
16.91187
 20
116.76379
 30
 0
 40
0.59000
 50
94.45935
 51
178.81380
  0
ARC
  8
Gravur
 62
   7
 39
0.200
  6
CONTINUOUS
 10
27.83015
 20
116.23200
 30
 0
 40
11.52100
 50
177.29359
 51
182.70641
  0
ARC
  8
Gravur
 62
   7
 39
0.200
  6
CONTINUOUS
 10
16.91187
 20
115.70021
 30
 0
 40
0.59000
 50
-178.81380
 51
-94.45935
  0
ARC
  8
Gravur
 62
   7
 39
0.200
  6
CONTINUOUS
 10
17.85800
 20
136.09757
 30
 0
 40
21.00900
 50
-92.70639
 51
-87.29361
  0
ARC
  8
Gravur
 62
   7
 39
0.200
  6
CONTINUOUS
 10
18.82071
 20
115.71729
 30
 0
 40
0.60600
 50
-87.22947
 51
-2.77053
  0
ARC
  8
Gravur
 62
   7
 39
0.200
  6
CONTINUOUS
 10
16.05768
 20
116.18643
 30
 0
 40
3.40500
 50
-8.41734
 51
-3.00385
  0
LINE
  8
Gravur
 62
   7
 39
0.200
  6
CONTINUOUS
 10
19.45800
 20
116.00800
 30
 0
 11
18.62600
 21
116.00800
  0
ARC
  8
Gravur
 62
   7
 39
0.200
  6
CONTINUOUS
 10
18.34418
 20
116.03382
 30
 0
 40
0.28300
 50
275.23470
 51
-5.23470
  0
ARC
  8
Gravur
 62
   7
 39
0.200
  6
CONTINUOUS
 10
17.84200
 20
121.32705
 30
 0
 40
5.60000
 50
264.58979
 51
-84.58979
  0
ARC
  8
Gravur
 62
   7
 39
0.200
  6
CONTINUOUS
 10
17.33602
 20
115.99802
 30
 0
 40
0.24700
 50
185.11395
 51
-95.11395
  0
ARC
  8
Gravur
 62
   7
 39
0.200
  6
CONTINUOUS
 10
19.79290
 20
116.23200
 30
 0
 40
2.71500
 50
174.58949
 51
-174.58949
  0
ARC
  8
Gravur
 62
   7
 39
0.200
  6
CONTINUOUS
 10
17.33602
 20
116.46598
 30
 0
 40
0.24700
 50
455.11395
 51
174.88605
  0
ARC
  8
Gravur
 62
   7
 39
0.200
  6
CONTINUOUS
 10
17.84200
 20
111.13695
 30
 0
 40
5.60000
 50
444.58979
 51
95.41021
  0
ARC
  8
Gravur
 62
   7
 39
0.200
  6
CONTINUOUS
 10
18.34418
 20
116.43018
 30
 0
 40
0.28300
 50
365.23470
 51
84.76530
  0
LINE
  8
Gravur
 62
   7
 39
0.200
  6
CONTINUOUS
 10
20.80200
 20
118.31200
 30
 0
 11
21.69800
 21
118.31200
  0
LINE
  8
Gravur
 62
   7
 39
0.200
  6
CONTINUOUS
 10
21.69800
 20
118.31200
 30
 0
 11
21.05800
 21
117.67200
  0
LINE
  8
Gravur
 62
   7
 39
0.200
  6
CONTINUOUS
 10
21.05800
 20
117.67200
 30
 0
 11
20.41800
 21
117.67200
  0
LINE
  8
Gravur
 62
   7
 39
0.200
  6
CONTINUOUS
 10
20.41800
 20
117.67200
 30
 0
 11
20.80200
 21
118.31200
  0
LINE
  8
Gravur
 62
   7
 39
0.200
  6
CONTINUOUS
 10
23.04200
 20
117.86400
 30
 0
 11
23.87400
 21
117.86400
  0
LINE
  8
Gravur
 62
   7
 39
0.200
  6
CONTINUOUS
 10
23.87400
 20
117.86400
 30
 0
 11
23.87400
 21
117.35200
  0
LINE
  8
Gravur
 62
   7
 39
0.200
  6
CONTINUOUS
 10
23.87400
 20
117.35200
 30
 0
 11
25.21800
 21
117.35200
  0
LINE
  8
Gravur
 62
   7
 39
0.200
  6
CONTINUOUS
 10
25.21800
 20
117.35200
 30
 0
 11
25.21800
 21
116.77600
  0
LINE
  8
Gravur
 62
   7
 39
0.200
  6
CONTINUOUS
 10
25.21800
 20
116.77600
 30
 0
 11
23.87400
 21
116.77600
  0
LINE
  8
Gravur
 62
   7
 39
0.200
  6
CONTINUOUS
 10
23.87400
 20
116.77600
 30
 0
 11
23.87400
 21
116.00800
  0
ARC
  8
Gravur
 62
   7
 39
0.200
  6
CONTINUOUS
 10
24.13100
 20
116.00687
 30
 0
 40
0.25700
 50
179.74871
 51
262.62314
  0
ARC
  8
Gravur
 62
   7
 39
0.200
  6
CONTINUOUS
 10
24.19400
 20
116.51095
 30
 0
 40
0.76500
 50
-97.20906
 51
-82.79094
  0
ARC
  8
Gravur
 62
   7
 39
0.200
  6
CONTINUOUS
 10
24.25700
 20
116.00687
 30
 0
 40
0.25700
 50
-82.62314
 51
0.25129
  0
LINE
  8
Gravur
 62
   7
 39
0.200
  6
CONTINUOUS
 10
24.51400
 20
116.00800
 30
 0
 11
24.51400
 21
116.13600
  0
LINE
  8
Gravur
 62
   7
 39
0.200
  6
CONTINUOUS
 10
24.51400
 20
116.13600
 30
 0
 11
25.34600
 21
116.13600
  0
LINE
  8
Gravur
 62
   7
 39
0.200
  6
CONTINUOUS
 10
25.34600
 20
116.13600
 30
 0
 11
25.34600
 21
115.75200
  0
ARC
  8
Gravur
 62
   7
 39
0.200
  6
CONTINUOUS
 10
24.70801
 20
115.74929
 30
 0
 40
0.63800
 50
272.69464
 51
0.24296
  0
ARC
  8
Gravur
 62
   7
 39
0.200
  6
CONTINUOUS
 10
24.19400
 20
126.62015
 30
 0
 40
11.52100
 50
267.29359
 51
-87.29359
  0
ARC
  8
Gravur
 62
   7
 39
0.200
  6
CONTINUOUS
 10
23.67999
 20
115.74929
 30
 0
 40
0.63800
 50
179.75704
 51
-92.69464
  0
LINE
  8
Gravur
 62
   7
 39
0.200
  6
CONTINUOUS
 10
23.04200
 20
115.75200
 30
 0
 11
23.04200
 21
116.77600
  0
LINE
  8
Gravur
 62
   7
 39
0.200
  6
CONTINUOUS
 10
23.04200
 20
116.77600
 30
 0
 11
22.65800
 21
116.77600
  0
LINE
  8
Gravur
 62
   7
 39
0.200
  6
CONTINUOUS
 10
22.65800
 20
116.77600
 30
 0
 11
22.65800
 21
117.35200
  0
LINE
  8
Gravur
 62
   7
 39
0.200
  6
CONTINUOUS
 10
22.65800
 20
117.35200
 30
 0
 11
23.04200
 21
117.35200
  0
LINE
  8
Gravur
 62
   7
 39
0.200
  6
CONTINUOUS
 10
23.04200
 20
117.35200
 30
 0
 11
23.04200
 21
117.86400
  0
LINE
  8
Gravur
 62
   7
 39
0.200
  6
CONTINUOUS
 10
26.30600
 20
116.39200
 30
 0
 11
28.99400
 21
116.39200
  0
LINE
  8
Gravur
 62
   7
 39
0.200
  6
CONTINUOUS
 10
28.99400
 20
116.39200
 30
 0
 11
28.99400
 21
115.91200
  0
LINE
  8
Gravur
 62
   7
 39
0.200
  6
CONTINUOUS
 10
28.99400
 20
115.91200
 30
 0
 11
26.30600
 21
115.91200
  0
LINE
  8
Gravur
 62
   7
 39
0.200
  6
CONTINUOUS
 10
26.30600
 20
115.91200
 30
 0
 11
26.30600
 21
116.39200
  0
LINE
  8
Gravur
 62
   7
 39
0.200
  6
CONTINUOUS
 10
29.95400
 20
118.31200
 30
 0
 11
29.95400
 21
115.11200
  0
LINE
  8
Gravur
 62
   7
 39
0.200
  6
CONTINUOUS
 10
29.95400
 20
115.11200
 30
 0
 11
33.15400
 21
115.11200
  0
LINE
  8
Gravur
 62
   7
 39
0.200
  6
CONTINUOUS
 10
33.15400
 20
115.11200
 30
 0
 11
33.15400
 21
115.81600
  0
LINE
  8
Gravur
 62
   7
 39
0.200
  6
CONTINUOUS
 10
33.15400
 20
115.81600
 30
 0
 11
30.85000
 21
115.81600
  0
LINE
  8
Gravur
 62
   7
 39
0.200
  6
CONTINUOUS
 10
30.85000
 20
115.81600
 30
 0
 11
30.85000
 21
118.31200
  0
LINE
  8
Gravur
 62
   7
 39
0.200
  6
CONTINUOUS
 10
30.85000
 20
118.31200
 30
 0
 11
29.95400
 21
118.31200
  0
LINE
  8
Gravur
 62
   7
 39
0.200
  6
CONTINUOUS
 10
36.03400
 20
116.10400
 30
 0
 11
35.13800
 21
116.10400
  0
ARC
  8
Gravur
 62
   7
 39
0.200
  6
CONTINUOUS
 10
35.13800
 20
115.86400
 30
 0
 40
0.24000
 50
90.00000
 51
270.00000
  0
LINE
  8
Gravur
 62
   7
 39
0.200
  6
CONTINUOUS
 10
35.13800
 20
115.62400
 30
 0
 11
36.03400
 21
115.62400
  0
ARC
  8
Gravur
 62
   7
 39
0.200
  6
CONTINUOUS
 10
36.03400
 20
115.86400
 30
 0
 40
0.24000
 50
-90.00000
 51
90.00000
  0
ARC
  8
Gravur
 62
   7
 39
0.200
  6
CONTINUOUS
 10
35.75540
 20
116.02446
 30
 0
 40
0.56000
 50
32.82280
 51
87.68743
  0
ARC
  8
Gravur
 62
   7
 39
0.200
  6
CONTINUOUS
 10
35.21800
 20
98.80882
 30
 0
 40
17.78400
 50
88.19552
 51
91.80448
  0
ARC
  8
Gravur
 62
   7
 39
0.200
  6
CONTINUOUS
 10
34.67889
 20
116.01939
 30
 0
 40
0.56500
 50
92.11842
 51
181.15473
  0
LINE
  8
Gravur
 62
   7
 39
0.200
  6
CONTINUOUS
 10
34.11400
 20
116.00800
 30
 0
 11
34.11400
 21
115.68800
  0
ARC
  8
Gravur
 62
   7
 39
0.200
  6
CONTINUOUS
 10
34.67889
 20
115.67661
 30
 0
 40
0.56500
 50
178.84527
 51
267.88158
  0
ARC
  8
Gravur
 62
   7
 39
0.200
  6
CONTINUOUS
 10
35.21800
 20
132.88718
 30
 0
 40
17.78400
 50
-91.80448
 51
-88.19552
  0
ARC
  8
Gravur
 62
   7
 39
0.200
  6
CONTINUOUS
 10
35.75540
 20
115.67154
 30
 0
 40
0.56000
 50
-87.68743
 51
-32.82280
  0
LINE
  8
Gravur
 62
   7
 39
0.200
  6
CONTINUOUS
 10
36.22600
 20
115.36800
 30
 0
 11
36.22600
 21
115.11200
  0
LINE
  8
Gravur
 62
   7
 39
0.200
  6
CONTINUOUS
 10
36.22600
 20
115.11200
 30
 0
 11
37.05800
 21
115.11200
  0
LINE
  8
Gravur
 62
   7
 39
0.200
  6
CONTINUOUS
 10
37.05800
 20
115.11200
 30
 0
 11
37.05800
 21
116.71200
  0
ARC
  8
Gravur
 62
   7
 39
0.200
  6
CONTINUOUS
 10
36.42001
 20
116.71471
 30
 0
 40
0.63800
 50
-0.24296
 51
87.30536
  0
ARC
  8
Gravur
 62
   7
 39
0.200
  6
CONTINUOUS
 10
35.58600
 20
99.07441
 30
 0
 40
18.29800
 50
87.29359
 51
92.70641
  0
ARC
  8
Gravur
 62
   7
 39
0.200
  6
CONTINUOUS
 10
34.75199
 20
116.71471
 30
 0
 40
0.63800
 50
92.69464
 51
180.24296
  0
LINE
  8
Gravur
 62
   7
 39
0.200
  6
CONTINUOUS
 10
34.11400
 20
116.71200
 30
 0
 11
34.94600
 21
116.71200
  0
ARC
  8
Gravur
 62
   7
 39
0.200
  6
CONTINUOUS
 10
35.13700
 20
116.71300
 30
 0
 40
0.19100
 50
89.69923
 51
-179.69923
  0
LINE
  8
Gravur
 62
   7
 39
0.200
  6
CONTINUOUS
 10
35.13800
 20
116.90400
 30
 0
 11
36.03400
 21
116.90400
  0
ARC
  8
Gravur
 62
   7
 39
0.200
  6
CONTINUOUS
 10
36.03500
 20
116.71300
 30
 0
 40
0.19100
 50
359.69923
 51
90.30077
  0
LINE
  8
Gravur
 62
   7
 39
0.200
  6
CONTINUOUS
 10
36.22600
 20
116.71200
 30
 0
 11
36.22600
 21
116.32800
  0
ARC
  8
Gravur
 62
   7
 39
0.200
  6
CONTINUOUS
 10
39.10421
 20
116.45779
 30
 0
 40
0.25600
 50
96.77739
 51
173.22261
  0
ARC
  8
Gravur
 62
   7
 39
0.200
  6
CONTINUOUS
 10
41.16489
 20
116.23200
 30
 0
 40
2.32900
 50
173.68939
 51
186.31061
  0
ARC
  8
Gravur
 62
   7
 39
0.200
  6
CONTINUOUS
 10
39.10421
 20
116.00621
 30
 0
 40
0.25600
 50
-173.22261
 51
-96.77739
  0
ARC
  8
Gravur
 62
   7
 39
0.200
  6
CONTINUOUS
 10
39.61800
 20
120.67202
 30
 0
 40
4.95000
 50
-96.30949
 51
-83.69051
  0
ARC
  8
Gravur
 62
   7
 39
0.200
  6
CONTINUOUS
 10
40.13179
 20
116.00621
 30
 0
 40
0.25600
 50
-83.22261
 51
-6.77739
  0
ARC
  8
Gravur
 62
   7
 39
0.200
  6
CONTINUOUS
 10
38.07111
 20
116.23200
 30
 0
 40
2.32900
 50
-6.31061
 51
6.31061
  0
ARC
  8
Gravur
 62
   7
 39
0.200
  6
CONTINUOUS
 10
40.13179
 20
116.45779
 30
 0
 40
0.25600
 50
6.77739
 51
83.22261
  0
ARC
  8
Gravur
 62
   7
 39
0.200
  6
CONTINUOUS
 10
39.61800
 20
111.79198
 30
 0
 40
4.95000
 50
83.69051
 51
96.30949
  0
LINE
  8
Gravur
 62
   7
 39
0.200
  6
CONTINUOUS
 10
38.85000
 20
117.09600
 30
 0
 11
38.85000
 21
118.31200
  0
LINE
  8
Gravur
 62
   7
 39
0.200
  6
CONTINUOUS
 10
38.85000
 20
118.31200
 30
 0
 11
38.01800
 21
118.31200
  0
LINE
  8
Gravur
 62
   7
 39
0.200
  6
CONTINUOUS
 10
38.01800
 20
118.31200
 30
 0
 11
38.01800
 21
115.11200
  0
LINE
  8
Gravur
 62
   7
 39
0.200
  6
CONTINUOUS
 10
38.01800
 20
115.11200
 30
 0
 11
38.85000
 21
115.11200
  0
LINE
  8
Gravur
 62
   7
 39
0.200
  6
CONTINUOUS
 10
38.85000
 20
115.11200
 30
 0
 11
38.85000
 21
115.49600
  0
ARC
  8
Gravur
 62
   7
 39
0.200
  6
CONTINUOUS
 10
39.40168
 20
115.69360
 30
 0
 40
0.58600
 50
-160.29359
 51
-97.02603
  0
ARC
  8
Gravur
 62
   7
 39
0.200
  6
CONTINUOUS
 10
39.97000
 20
120.17168
 30
 0
 40
5.10000
 50
-97.20906
 51
-82.79094
  0
ARC
  8
Gravur
 62
   7
 39
0.200
  6
CONTINUOUS
 10
40.52183
 20
115.77617
 30
 0
 40
0.67000
 50
-82.43787
 51
-7.56213
  0
ARC
  8
Gravur
 62
   7
 39
0.200
  6
CONTINUOUS
 10
36.88527
 20
116.23200
 30
 0
 40
4.33500
 50
-7.20906
 51
7.20906
  0
ARC
  8
Gravur
 62
   7
 39
0.200
  6
CONTINUOUS
 10
40.52183
 20
116.68783
 30
 0
 40
0.67000
 50
7.56213
 51
82.43787
  0
ARC
  8
Gravur
 62
   7
 39
0.200
  6
CONTINUOUS
 10
39.97000
 20
112.29232
 30
 0
 40
5.10000
 50
82.79094
 51
97.20906
  0
ARC
  8
Gravur
 62
   7
 39
0.200
  6
CONTINUOUS
 10
39.43201
 20
116.58273
 30
 0
 40
0.77600
 50
97.55364
 51
138.59133
  0
LINE
  8
Gravur
 62
   7
 39
0.200
  6
CONTINUOUS
 10
45.05800
 20
118.31200
 30
 0
 11
45.05800
 21
115.11200
  0
LINE
  8
Gravur
 62
   7
 39
0.200
  6
CONTINUOUS
 10
45.05800
 20
115.11200
 30
 0
 11
45.95400
 21
115.11200
  0
LINE
  8
Gravur
 62
   7
 39
0.200
  6
CONTINUOUS
 10
45.95400
 20
115.11200
 30
 0
 11
45.95400
 21
118.31200
  0
LINE
  8
Gravur
 62
   7
 39
0.200
  6
CONTINUOUS
 10
45.95400
 20
118.31200
 30
 0
 11
45.05800
 21
118.31200
  0
LINE
  8
Gravur
 62
   7
 39
0.200
  6
CONTINUOUS
 10
46.91400
 20
118.31200
 30
 0
 11
50.24200
 21
118.31200
  0
LINE
  8
Gravur
 62
   7
 39
0.200
  6
CONTINUOUS
 10
50.24200
 20
118.31200
 30
 0
 11
50.24200
 21
117.60800
  0
LINE
  8
Gravur
 62
   7
 39
0.200
  6
CONTINUOUS
 10
50.24200
 20
117.60800
 30
 0
 11
47.77800
 21
117.60800
  0
LINE
  8
Gravur
 62
   7
 39
0.200
  6
CONTINUOUS
 10
47.77800
 20
117.60800
 30
 0
 11
47.77800
 21
116.93600
  0
LINE
  8
Gravur
 62
   7
 39
0.200
  6
CONTINUOUS
 10
47.77800
 20
116.93600
 30
 0
 11
50.14600
 21
116.93600
  0
LINE
  8
Gravur
 62
   7
 39
0.200
  6
CONTINUOUS
 10
50.14600
 20
116.93600
 30
 0
 11
50.14600
 21
116.29600
  0
LINE
  8
Gravur
 62
   7
 39
0.200
  6
CONTINUOUS
 10
50.14600
 20
116.29600
 30
 0
 11
47.77800
 21
116.29600
  0
LINE
  8
Gravur
 62
   7
 39
0.200
  6
CONTINUOUS
 10
47.77800
 20
116.29600
 30
 0
 11
47.77800
 21
115.11200
  0
LINE
  8
Gravur
 62
   7
 39
0.200
  6
CONTINUOUS
 10
47.77800
 20
115.11200
 30
 0
 11
46.91400
 21
115.11200
  0
LINE
  8
Gravur
 62
   7
 39
0.200
  6
CONTINUOUS
 10
46.91400
 20
115.11200
 30
 0
 11
46.91400
 21
118.31200
  0
LINE
  8
Gravur
 62
   7
 39
0.200
  6
CONTINUOUS
 10
52.09800
 20
117.60800
 30
 0
 11
52.09800
 21
116.61600
  0
LINE
  8
Gravur
 62
   7
 39
0.200
  6
CONTINUOUS
 10
52.09800
 20
116.61600
 30
 0
 11
53.76200
 21
116.61600
  0
ARC
  8
Gravur
 62
   7
 39
0.200
  6
CONTINUOUS
 10
53.76401
 20
116.99799
 30
 0
 40
0.38200
 50
-90.30077
 51
0.30077
  0
LINE
  8
Gravur
 62
   7
 39
0.200
  6
CONTINUOUS
 10
54.14600
 20
117.00000
 30
 0
 11
54.14600
 21
117.22400
  0
ARC
  8
Gravur
 62
   7
 39
0.200
  6
CONTINUOUS
 10
53.76401
 20
117.22601
 30
 0
 40
0.38200
 50
-0.30077
 51
90.30077
  0
LINE
  8
Gravur
 62
   7
 39
0.200
  6
CONTINUOUS
 10
53.76200
 20
117.60800
 30
 0
 11
52.09800
 21
117.60800
  0
LINE
  8
Gravur
 62
   7
 39
0.200
  6
CONTINUOUS
 10
51.20200
 20
118.31200
 30
 0
 11
51.20200
 21
115.11200
  0
LINE
  8
Gravur
 62
   7
 39
0.200
  6
CONTINUOUS
 10
51.20200
 20
115.11200
 30
 0
 11
52.09800
 21
115.11200
  0
LINE
  8
Gravur
 62
   7
 39
0.200
  6
CONTINUOUS
 10
52.09800
 20
115.11200
 30
 0
 11
52.09800
 21
115.91200
  0
LINE
  8
Gravur
 62
   7
 39
0.200
  6
CONTINUOUS
 10
52.09800
 20
115.91200
 30
 0
 11
54.33800
 21
115.91200
  0
ARC
  8
Gravur
 62
   7
 39
0.200
  6
CONTINUOUS
 10
54.34201
 20
116.61199
 30
 0
 40
0.70000
 50
-90.32835
 51
0.32835
  0
LINE
  8
Gravur
 62
   7
 39
0.200
  6
CONTINUOUS
 10
55.04200
 20
116.61600
 30
 0
 11
55.04200
 21
117.60800
  0
ARC
  8
Gravur
 62
   7
 39
0.200
  6
CONTINUOUS
 10
54.34201
 20
117.61201
 30
 0
 40
0.70000
 50
-0.32835
 51
90.32835
  0
LINE
  8
Gravur
 62
   7
 39
0.200
  6
CONTINUOUS
 10
54.33800
 20
118.31200
 30
 0
 11
51.20200
 21
118.31200
  0
LINE
  8
Gravur
 62
   7
 39
0.200
  6
CONTINUOUS
 10
20.89400
 20
90.34100
 30
 0
 11
22.73400
 21
90.34100
  0
LINE
  8
Gravur
 62
   7
 39
0.200
  6
CONTINUOUS
 10
22.73400
 20
90.34100
 30
 0
 11
22.88900
 21
90.35300
  0
LINE
  8
Gravur
 62
   7
 39
0.200
  6
CONTINUOUS
 10
22.88900
 20
90.35300
 30
 0
 11
23.04100
 21
90.38700
  0
LINE
  8
Gravur
 62
   7
 39
0.200
  6
CONTINUOUS
 10
23.04100
 20
90.38700
 30
 0
 11
23.18500
 21
90.44400
  0
LINE
  8
Gravur
 62
   7
 39
0.200
  6
CONTINUOUS
 10
23.18500
 20
90.44400
 30
 0
 11
23.32000
 21
90.52200
  0
LINE
  8
Gravur
 62
   7
 39
0.200
  6
CONTINUOUS
 10
23.32000
 20
90.52200
 30
 0
 11
23.44100
 21
90.61900
  0
LINE
  8
Gravur
 62
   7
 39
0.200
  6
CONTINUOUS
 10
23.44100
 20
90.61900
 30
 0
 11
23.54700
 21
90.73300
  0
LINE
  8
Gravur
 62
   7
 39
0.200
  6
CONTINUOUS
 10
23.54700
 20
90.73300
 30
 0
 11
23.63500
 21
90.86100
  0
LINE
  8
Gravur
 62
   7
 39
0.200
  6
CONTINUOUS
 10
23.63500
 20
90.86100
 30
 0
 11
23.70200
 21
91.00100
  0
LINE
  8
Gravur
 62
   7
 39
0.200
  6
CONTINUOUS
 10
23.70200
 20
91.00100
 30
 0
 11
23.74800
 21
91.15000
  0
LINE
  8
Gravur
 62
   7
 39
0.200
  6
CONTINUOUS
 10
23.74800
 20
91.15000
 30
 0
 11
23.77100
 21
91.30300
  0
LINE
  8
Gravur
 62
   7
 39
0.200
  6
CONTINUOUS
 10
23.77100
 20
91.30300
 30
 0
 11
23.77100
 21
91.45900
  0
LINE
  8
Gravur
 62
   7
 39
0.200
  6
CONTINUOUS
 10
23.77100
 20
91.45900
 30
 0
 11
23.74800
 21
91.61200
  0
LINE
  8
Gravur
 62
   7
 39
0.200
  6
CONTINUOUS
 10
23.74800
 20
91.61200
 30
 0
 11
23.70200
 21
91.76100
  0
LINE
  8
Gravur
 62
   7
 39
0.200
  6
CONTINUOUS
 10
23.70200
 20
91.76100
 30
 0
 11
23.63500
 21
91.90100
  0
LINE
  8
Gravur
 62
   7
 39
0.200
  6
CONTINUOUS
 10
23.63500
 20
91.90100
 30
 0
 11
23.54700
 21
92.02900
  0
LINE
  8
Gravur
 62
   7
 39
0.200
  6
CONTINUOUS
 10
23.54700
 20
92.02900
 30
 0
 11
23.44100
 21
92.14300
  0
LINE
  8
Gravur
 62
   7
 39
0.200
  6
CONTINUOUS
 10
23.44100
 20
92.14300
 30
 0
 11
23.32000
 21
92.24000
  0
LINE
  8
Gravur
 62
   7
 39
0.200
  6
CONTINUOUS
 10
23.32000
 20
92.24000
 30
 0
 11
23.18500
 21
92.31800
  0
LINE
  8
Gravur
 62
   7
 39
0.200
  6
CONTINUOUS
 10
23.18500
 20
92.31800
 30
 0
 11
23.04100
 21
92.37500
  0
LINE
  8
Gravur
 62
   7
 39
0.200
  6
CONTINUOUS
 10
23.04100
 20
92.37500
 30
 0
 11
22.88900
 21
92.40900
  0
LINE
  8
Gravur
 62
   7
 39
0.200
  6
CONTINUOUS
 10
22.88900
 20
92.40900
 30
 0
 11
22.73400
 21
92.42100
  0
LINE
  8
Gravur
 62
   7
 39
0.200
  6
CONTINUOUS
 10
22.73400
 20
92.42100
 30
 0
 11
20.89400
 21
92.42100
  0
LINE
  8
Gravur
 62
   7
 39
0.200
  6
CONTINUOUS
 10
22.97400
 20
92.86100
 30
 0
 11
23.08000
 21
92.86700
  0
LINE
  8
Gravur
 62
   7
 39
0.200
  6
CONTINUOUS
 10
23.08000
 20
92.86700
 30
 0
 11
23.18400
 21
92.89000
  0
LINE
  8
Gravur
 62
   7
 39
0.200
  6
CONTINUOUS
 10
23.18400
 20
92.89000
 30
 0
 11
23.28400
 21
92.92700
  0
LINE
  8
Gravur
 62
   7
 39
0.200
  6
CONTINUOUS
 10
23.28400
 20
92.92700
 30
 0
 11
23.37700
 21
92.97900
  0
LINE
  8
Gravur
 62
   7
 39
0.200
  6
CONTINUOUS
 10
23.37700
 20
92.97900
 30
 0
 11
23.46100
 21
93.04400
  0
LINE
  8
Gravur
 62
   7
 39
0.200
  6
CONTINUOUS
 10
23.46100
 20
93.04400
 30
 0
 11
23.53400
 21
93.12100
  0
LINE
  8
Gravur
 62
   7
 39
0.200
  6
CONTINUOUS
 10
23.53400
 20
93.12100
 30
 0
 11
23.53400
 21
93.12100
  0
LINE
  8
Gravur
 62
   7
 39
0.200
  6
CONTINUOUS
 10
23.53400
 20
93.12100
 30
 0
 11
23.63800
 21
93.26900
  0
LINE
  8
Gravur
 62
   7
 39
0.200
  6
CONTINUOUS
 10
23.63800
 20
93.26900
 30
 0
 11
23.72000
 21
93.43000
  0
LINE
  8
Gravur
 62
   7
 39
0.200
  6
CONTINUOUS
 10
23.72000
 20
93.43000
 30
 0
 11
23.77800
 21
93.60000
  0
LINE
  8
Gravur
 62
   7
 39
0.200
  6
CONTINUOUS
 10
23.77800
 20
93.60000
 30
 0
 11
23.81200
 21
93.77800
  0
LINE
  8
Gravur
 62
   7
 39
0.200
  6
CONTINUOUS
 10
23.81200
 20
93.77800
 30
 0
 11
23.82000
 21
93.95800
  0
LINE
  8
Gravur
 62
   7
 39
0.200
  6
CONTINUOUS
 10
23.82000
 20
93.95800
 30
 0
 11
23.80300
 21
94.13800
  0
LINE
  8
Gravur
 62
   7
 39
0.200
  6
CONTINUOUS
 10
23.80300
 20
94.13800
 30
 0
 11
23.76100
 21
94.31300
  0
LINE
  8
Gravur
 62
   7
 39
0.200
  6
CONTINUOUS
 10
23.76100
 20
94.31300
 30
 0
 11
23.69400
 21
94.48100
  0
LINE
  8
Gravur
 62
   7
 39
0.200
  6
CONTINUOUS
 10
23.69400
 20
94.48100
 30
 0
 11
23.69400
 21
94.48100
  0
LINE
  8
Gravur
 62
   7
 39
0.200
  6
CONTINUOUS
 10
23.69400
 20
94.48100
 30
 0
 11
23.64600
 21
94.57000
  0
LINE
  8
Gravur
 62
   7
 39
0.200
  6
CONTINUOUS
 10
23.64600
 20
94.57000
 30
 0
 11
23.58600
 21
94.65100
  0
LINE
  8
Gravur
 62
   7
 39
0.200
  6
CONTINUOUS
 10
23.58600
 20
94.65100
 30
 0
 11
23.51500
 21
94.72300
  0
LINE
  8
Gravur
 62
   7
 39
0.200
  6
CONTINUOUS
 10
23.51500
 20
94.72300
 30
 0
 11
23.43500
 21
94.78400
  0
LINE
  8
Gravur
 62
   7
 39
0.200
  6
CONTINUOUS
 10
23.43500
 20
94.78400
 30
 0
 11
23.34700
 21
94.83300
  0
LINE
  8
Gravur
 62
   7
 39
0.200
  6
CONTINUOUS
 10
23.34700
 20
94.83300
 30
 0
 11
23.25300
 21
94.87000
  0
LINE
  8
Gravur
 62
   7
 39
0.200
  6
CONTINUOUS
 10
23.25300
 20
94.87000
 30
 0
 11
23.15500
 21
94.89200
  0
LINE
  8
Gravur
 62
   7
 39
0.200
  6
CONTINUOUS
 10
23.15500
 20
94.89200
 30
 0
 11
23.05400
 21
94.90100
  0
LINE
  8
Gravur
 62
   7
 39
0.200
  6
CONTINUOUS
 10
23.05400
 20
94.90100
 30
 0
 11
23.05400
 21
94.90100
  0
LINE
  8
Gravur
 62
   7
 39
0.200
  6
CONTINUOUS
 10
23.05400
 20
94.90100
 30
 0
 11
22.96200
 21
94.89500
  0
LINE
  8
Gravur
 62
   7
 39
0.200
  6
CONTINUOUS
 10
22.96200
 20
94.89500
 30
 0
 11
22.87300
 21
94.87500
  0
LINE
  8
Gravur
 62
   7
 39
0.200
  6
CONTINUOUS
 10
22.87300
 20
94.87500
 30
 0
 11
22.78600
 21
94.84300
  0
LINE
  8
Gravur
 62
   7
 39
0.200
  6
CONTINUOUS
 10
22.78600
 20
94.84300
 30
 0
 11
22.70600
 21
94.80000
  0
LINE
  8
Gravur
 62
   7
 39
0.200
  6
CONTINUOUS
 10
22.70600
 20
94.80000
 30
 0
 11
22.63200
 21
94.74500
  0
LINE
  8
Gravur
 62
   7
 39
0.200
  6
CONTINUOUS
 10
22.63200
 20
94.74500
 30
 0
 11
22.56700
 21
94.68000
  0
LINE
  8
Gravur
 62
   7
 39
0.200
  6
CONTINUOUS
 10
22.56700
 20
94.68000
 30
 0
 11
22.51100
 21
94.60700
  0
LINE
  8
Gravur
 62
   7
 39
0.200
  6
CONTINUOUS
 10
22.51100
 20
94.60700
 30
 0
 11
22.46700
 21
94.52700
  0
LINE
  8
Gravur
 62
   7
 39
0.200
  6
CONTINUOUS
 10
22.46700
 20
94.52700
 30
 0
 11
22.43400
 21
94.44100
  0
LINE
  8
Gravur
 62
   7
 39
0.200
  6
CONTINUOUS
 10
22.43400
 20
94.44100
 30
 0
 11
22.43400
 21
94.44100
  0
LINE
  8
Gravur
 62
   7
 39
0.200
  6
CONTINUOUS
 10
22.43400
 20
94.44100
 30
 0
 11
22.19400
 21
93.32100
  0
LINE
  8
Gravur
 62
   7
 39
0.200
  6
CONTINUOUS
 10
22.19400
 20
93.32100
 30
 0
 11
22.16000
 21
93.23200
  0
LINE
  8
Gravur
 62
   7
 39
0.200
  6
CONTINUOUS
 10
22.16000
 20
93.23200
 30
 0
 11
22.11300
 21
93.14900
  0
LINE
  8
Gravur
 62
   7
 39
0.200
  6
CONTINUOUS
 10
22.11300
 20
93.14900
 30
 0
 11
22.05500
 21
93.07400
  0
LINE
  8
Gravur
 62
   7
 39
0.200
  6
CONTINUOUS
 10
22.05500
 20
93.07400
 30
 0
 11
21.98600
 21
93.00900
  0
LINE
  8
Gravur
 62
   7
 39
0.200
  6
CONTINUOUS
 10
21.98600
 20
93.00900
 30
 0
 11
21.90800
 21
92.95400
  0
LINE
  8
Gravur
 62
   7
 39
0.200
  6
CONTINUOUS
 10
21.90800
 20
92.95400
 30
 0
 11
21.82300
 21
92.91100
  0
LINE
  8
Gravur
 62
   7
 39
0.200
  6
CONTINUOUS
 10
21.82300
 20
92.91100
 30
 0
 11
21.73300
 21
92.88100
  0
LINE
  8
Gravur
 62
   7
 39
0.200
  6
CONTINUOUS
 10
21.73300
 20
92.88100
 30
 0
 11
21.63900
 21
92.86400
  0
LINE
  8
Gravur
 62
   7
 39
0.200
  6
CONTINUOUS
 10
21.63900
 20
92.86400
 30
 0
 11
21.57400
 21
92.86100
  0
LINE
  8
Gravur
 62
   7
 39
0.200
  6
CONTINUOUS
 10
21.57400
 20
92.86100
 30
 0
 11
21.47000
 21
92.87000
  0
LINE
  8
Gravur
 62
   7
 39
0.200
  6
CONTINUOUS
 10
21.47000
 20
92.87000
 30
 0
 11
21.36800
 21
92.89500
  0
LINE
  8
Gravur
 62
   7
 39
0.200
  6
CONTINUOUS
 10
21.36800
 20
92.89500
 30
 0
 11
21.27000
 21
92.93400
  0
LINE
  8
Gravur
 62
   7
 39
0.200
  6
CONTINUOUS
 10
21.27000
 20
92.93400
 30
 0
 11
21.18000
 21
92.98700
  0
LINE
  8
Gravur
 62
   7
 39
0.200
  6
CONTINUOUS
 10
21.18000
 20
92.98700
 30
 0
 11
21.09800
 21
93.05200
  0
LINE
  8
Gravur
 62
   7
 39
0.200
  6
CONTINUOUS
 10
21.09800
 20
93.05200
 30
 0
 11
21.02700
 21
93.12900
  0
LINE
  8
Gravur
 62
   7
 39
0.200
  6
CONTINUOUS
 10
21.02700
 20
93.12900
 30
 0
 11
20.96800
 21
93.21500
  0
LINE
  8
Gravur
 62
   7
 39
0.200
  6
CONTINUOUS
 10
20.96800
 20
93.21500
 30
 0
 11
20.93400
 21
93.28100
  0
LINE
  8
Gravur
 62
   7
 39
0.200
  6
CONTINUOUS
 10
20.93400
 20
93.28100
 30
 0
 11
20.86500
 21
93.45500
  0
LINE
  8
Gravur
 62
   7
 39
0.200
  6
CONTINUOUS
 10
20.86500
 20
93.45500
 30
 0
 11
20.82300
 21
93.63800
  0
LINE
  8
Gravur
 62
   7
 39
0.200
  6
CONTINUOUS
 10
20.82300
 20
93.63800
 30
 0
 11
20.80700
 21
93.82500
  0
LINE
  8
Gravur
 62
   7
 39
0.200
  6
CONTINUOUS
 10
20.80700
 20
93.82500
 30
 0
 11
20.81900
 21
94.01200
  0
LINE
  8
Gravur
 62
   7
 39
0.200
  6
CONTINUOUS
 10
20.81900
 20
94.01200
 30
 0
 11
20.85900
 21
94.19500
  0
LINE
  8
Gravur
 62
   7
 39
0.200
  6
CONTINUOUS
 10
20.85900
 20
94.19500
 30
 0
 11
20.92500
 21
94.37000
  0
LINE
  8
Gravur
 62
   7
 39
0.200
  6
CONTINUOUS
 10
20.92500
 20
94.37000
 30
 0
 11
21.01600
 21
94.53400
  0
LINE
  8
Gravur
 62
   7
 39
0.200
  6
CONTINUOUS
 10
21.01600
 20
94.53400
 30
 0
 11
21.09400
 21
94.64100
  0
LINE
  8
Gravur
 62
   7
 39
0.200
  6
CONTINUOUS
 10
21.09400
 20
94.64100
 30
 0
 11
21.16700
 21
94.71800
  0
LINE
  8
Gravur
 62
   7
 39
0.200
  6
CONTINUOUS
 10
21.16700
 20
94.71800
 30
 0
 11
21.25100
 21
94.78300
  0
LINE
  8
Gravur
 62
   7
 39
0.200
  6
CONTINUOUS
 10
21.25100
 20
94.78300
 30
 0
 11
21.34400
 21
94.83500
  0
LINE
  8
Gravur
 62
   7
 39
0.200
  6
CONTINUOUS
 10
21.34400
 20
94.83500
 30
 0
 11
21.44300
 21
94.87200
  0
LINE
  8
Gravur
 62
   7
 39
0.200
  6
CONTINUOUS
 10
21.44300
 20
94.87200
 30
 0
 11
21.54700
 21
94.89500
  0
LINE
  8
Gravur
 62
   7
 39
0.200
  6
CONTINUOUS
 10
21.54700
 20
94.89500
 30
 0
 11
21.65300
 21
94.90100
  0
LINE
  8
Gravur
 62
   7
 39
0.200
  6
CONTINUOUS
 10
21.65300
 20
94.90100
 30
 0
 11
21.65400
 21
94.90100
  0
LINE
  8
Gravur
 62
   7
 39
0.200
  6
CONTINUOUS
 10
20.89400
 20
95.34100
 30
 0
 11
22.33400
 21
95.34100
  0
LINE
  8
Gravur
 62
   7
 39
0.200
  6
CONTINUOUS
 10
22.33400
 20
95.34100
 30
 0
 11
23.77400
 21
95.34100
  0
LINE
  8
Gravur
 62
   7
 39
0.200
  6
CONTINUOUS
 10
23.77400
 20
95.34100
 30
 0
 11
23.77400
 21
96.70100
  0
LINE
  8
Gravur
 62
   7
 39
0.200
  6
CONTINUOUS
 10
23.77400
 20
96.70100
 30
 0
 11
23.76600
 21
96.80800
  0
LINE
  8
Gravur
 62
   7
 39
0.200
  6
CONTINUOUS
 10
23.76600
 20
96.80800
 30
 0
 11
23.74200
 21
96.91300
  0
LINE
  8
Gravur
 62
   7
 39
0.200
  6
CONTINUOUS
 10
23.74200
 20
96.91300
 30
 0
 11
23.70300
 21
97.01300
  0
LINE
  8
Gravur
 62
   7
 39
0.200
  6
CONTINUOUS
 10
23.70300
 20
97.01300
 30
 0
 11
23.64900
 21
97.10700
  0
LINE
  8
Gravur
 62
   7
 39
0.200
  6
CONTINUOUS
 10
23.64900
 20
97.10700
 30
 0
 11
23.58200
 21
97.19100
  0
LINE
  8
Gravur
 62
   7
 39
0.200
  6
CONTINUOUS
 10
23.58200
 20
97.19100
 30
 0
 11
23.50300
 21
97.26400
  0
LINE
  8
Gravur
 62
   7
 39
0.200
  6
CONTINUOUS
 10
23.50300
 20
97.26400
 30
 0
 11
23.41400
 21
97.32500
  0
LINE
  8
Gravur
 62
   7
 39
0.200
  6
CONTINUOUS
 10
23.41400
 20
97.32500
 30
 0
 11
23.31700
 21
97.37100
  0
LINE
  8
Gravur
 62
   7
 39
0.200
  6
CONTINUOUS
 10
23.31700
 20
97.37100
 30
 0
 11
23.21400
 21
97.40300
  0
LINE
  8
Gravur
 62
   7
 39
0.200
  6
CONTINUOUS
 10
23.21400
 20
97.40300
 30
 0
 11
23.10800
 21
97.41900
  0
LINE
  8
Gravur
 62
   7
 39
0.200
  6
CONTINUOUS
 10
23.10800
 20
97.41900
 30
 0
 11
23.00000
 21
97.41900
  0
LINE
  8
Gravur
 62
   7
 39
0.200
  6
CONTINUOUS
 10
23.00000
 20
97.41900
 30
 0
 11
22.89400
 21
97.40300
  0
LINE
  8
Gravur
 62
   7
 39
0.200
  6
CONTINUOUS
 10
22.89400
 20
97.40300
 30
 0
 11
22.79100
 21
97.37100
  0
LINE
  8
Gravur
 62
   7
 39
0.200
  6
CONTINUOUS
 10
22.79100
 20
97.37100
 30
 0
 11
22.69400
 21
97.32500
  0
LINE
  8
Gravur
 62
   7
 39
0.200
  6
CONTINUOUS
 10
22.69400
 20
97.32500
 30
 0
 11
22.60500
 21
97.26400
  0
LINE
  8
Gravur
 62
   7
 39
0.200
  6
CONTINUOUS
 10
22.60500
 20
97.26400
 30
 0
 11
22.52600
 21
97.19100
  0
LINE
  8
Gravur
 62
   7
 39
0.200
  6
CONTINUOUS
 10
22.52600
 20
97.19100
 30
 0
 11
22.45900
 21
97.10700
  0
LINE
  8
Gravur
 62
   7
 39
0.200
  6
CONTINUOUS
 10
22.45900
 20
97.10700
 30
 0
 11
22.40500
 21
97.01300
  0
LINE
  8
Gravur
 62
   7
 39
0.200
  6
CONTINUOUS
 10
22.40500
 20
97.01300
 30
 0
 11
22.36600
 21
96.91300
  0
LINE
  8
Gravur
 62
   7
 39
0.200
  6
CONTINUOUS
 10
22.36600
 20
96.91300
 30
 0
 11
22.34200
 21
96.80800
  0
LINE
  8
Gravur
 62
   7
 39
0.200
  6
CONTINUOUS
 10
22.34200
 20
96.80800
 30
 0
 11
22.33400
 21
96.70100
  0
LINE
  8
Gravur
 62
   7
 39
0.200
  6
CONTINUOUS
 10
22.33400
 20
96.70100
 30
 0
 11
22.33400
 21
95.34100
  0
LINE
  8
Gravur
 62
   7
 39
0.200
  6
CONTINUOUS
 10
22.33400
 20
95.34100
 30
 0
 11
22.33400
 21
96.54100
  0
LINE
  8
Gravur
 62
   7
 39
0.200
  6
CONTINUOUS
 10
22.33400
 20
96.54100
 30
 0
 11
22.32600
 21
96.64800
  0
LINE
  8
Gravur
 62
   7
 39
0.200
  6
CONTINUOUS
 10
22.32600
 20
96.64800
 30
 0
 11
22.30200
 21
96.75300
  0
LINE
  8
Gravur
 62
   7
 39
0.200
  6
CONTINUOUS
 10
22.30200
 20
96.75300
 30
 0
 11
22.26300
 21
96.85300
  0
LINE
  8
Gravur
 62
   7
 39
0.200
  6
CONTINUOUS
 10
22.26300
 20
96.85300
 30
 0
 11
22.20900
 21
96.94700
  0
LINE
  8
Gravur
 62
   7
 39
0.200
  6
CONTINUOUS
 10
22.20900
 20
96.94700
 30
 0
 11
22.14200
 21
97.03100
  0
LINE
  8
Gravur
 62
   7
 39
0.200
  6
CONTINUOUS
 10
22.14200
 20
97.03100
 30
 0
 11
22.06300
 21
97.10400
  0
LINE
  8
Gravur
 62
   7
 39
0.200
  6
CONTINUOUS
 10
22.06300
 20
97.10400
 30
 0
 11
21.97400
 21
97.16500
  0
LINE
  8
Gravur
 62
   7
 39
0.200
  6
CONTINUOUS
 10
21.97400
 20
97.16500
 30
 0
 11
21.87700
 21
97.21100
  0
LINE
  8
Gravur
 62
   7
 39
0.200
  6
CONTINUOUS
 10
21.87700
 20
97.21100
 30
 0
 11
21.77400
 21
97.24300
  0
LINE
  8
Gravur
 62
   7
 39
0.200
  6
CONTINUOUS
 10
21.77400
 20
97.24300
 30
 0
 11
21.66800
 21
97.25900
  0
LINE
  8
Gravur
 62
   7
 39
0.200
  6
CONTINUOUS
 10
21.66800
 20
97.25900
 30
 0
 11
21.56000
 21
97.25900
  0
LINE
  8
Gravur
 62
   7
 39
0.200
  6
CONTINUOUS
 10
21.56000
 20
97.25900
 30
 0
 11
21.45400
 21
97.24300
  0
LINE
  8
Gravur
 62
   7
 39
0.200
  6
CONTINUOUS
 10
21.45400
 20
97.24300
 30
 0
 11
21.35100
 21
97.21100
  0
LINE
  8
Gravur
 62
   7
 39
0.200
  6
CONTINUOUS
 10
21.35100
 20
97.21100
 30
 0
 11
21.25400
 21
97.16500
  0
LINE
  8
Gravur
 62
   7
 39
0.200
  6
CONTINUOUS
 10
21.25400
 20
97.16500
 30
 0
 11
21.16500
 21
97.10400
  0
LINE
  8
Gravur
 62
   7
 39
0.200
  6
CONTINUOUS
 10
21.16500
 20
97.10400
 30
 0
 11
21.08600
 21
97.03100
  0
LINE
  8
Gravur
 62
   7
 39
0.200
  6
CONTINUOUS
 10
21.08600
 20
97.03100
 30
 0
 11
21.01900
 21
96.94700
  0
LINE
  8
Gravur
 62
   7
 39
0.200
  6
CONTINUOUS
 10
21.01900
 20
96.94700
 30
 0
 11
20.96500
 21
96.85300
  0
LINE
  8
Gravur
 62
   7
 39
0.200
  6
CONTINUOUS
 10
20.96500
 20
96.85300
 30
 0
 11
20.92600
 21
96.75300
  0
LINE
  8
Gravur
 62
   7
 39
0.200
  6
CONTINUOUS
 10
20.92600
 20
96.75300
 30
 0
 11
20.90200
 21
96.64800
  0
LINE
  8
Gravur
 62
   7
 39
0.200
  6
CONTINUOUS
 10
20.90200
 20
96.64800
 30
 0
 11
20.89400
 21
96.54100
  0
LINE
  8
Gravur
 62
   7
 39
0.200
  6
CONTINUOUS
 10
20.89400
 20
96.54100
 30
 0
 11
20.89400
 21
95.34100
  0
LINE
  8
Gravur
 62
   7
 39
0.200
  6
CONTINUOUS
 10
20.73400
 20
68.32000
 30
 0
 11
20.73400
 21
66.48000
  0
LINE
  8
Gravur
 62
   7
 39
0.200
  6
CONTINUOUS
 10
20.73400
 20
66.48000
 30
 0
 11
22.17400
 21
66.48000
  0
LINE
  8
Gravur
 62
   7
 39
0.200
  6
CONTINUOUS
 10
22.17400
 20
66.48000
 30
 0
 11
22.17400
 21
68.16000
  0
LINE
  8
Gravur
 62
   7
 39
0.200
  6
CONTINUOUS
 10
22.17400
 20
68.16000
 30
 0
 11
22.17400
 21
66.48000
  0
LINE
  8
Gravur
 62
   7
 39
0.200
  6
CONTINUOUS
 10
22.17400
 20
66.48000
 30
 0
 11
23.61400
 21
66.48000
  0
LINE
  8
Gravur
 62
   7
 39
0.200
  6
CONTINUOUS
 10
23.61400
 20
66.48000
 30
 0
 11
23.61400
 21
68.40000
  0
LINE
  8
Gravur
 62
   7
 39
0.200
  6
CONTINUOUS
 10
21.53400
 20
68.84000
 30
 0
 11
21.53400
 21
69.56000
  0
LINE
  8
Gravur
 62
   7
 39
0.200
  6
CONTINUOUS
 10
21.53400
 20
69.56000
 30
 0
 11
21.53400
 21
69.16000
  0
LINE
  8
Gravur
 62
   7
 39
0.200
  6
CONTINUOUS
 10
21.53400
 20
69.16000
 30
 0
 11
20.89400
 21
69.16000
  0
LINE
  8
Gravur
 62
   7
 39
0.200
  6
CONTINUOUS
 10
20.89400
 20
69.16000
 30
 0
 11
23.21400
 21
69.16000
  0
LINE
  8
Gravur
 62
   7
 39
0.200
  6
CONTINUOUS
 10
23.21400
 20
69.16000
 30
 0
 11
23.27100
 21
69.16400
  0
LINE
  8
Gravur
 62
   7
 39
0.200
  6
CONTINUOUS
 10
23.27100
 20
69.16400
 30
 0
 11
23.32700
 21
69.17600
  0
LINE
  8
Gravur
 62
   7
 39
0.200
  6
CONTINUOUS
 10
23.32700
 20
69.17600
 30
 0
 11
23.38100
 21
69.19600
  0
LINE
  8
Gravur
 62
   7
 39
0.200
  6
CONTINUOUS
 10
23.38100
 20
69.19600
 30
 0
 11
23.43100
 21
69.22300
  0
LINE
  8
Gravur
 62
   7
 39
0.200
  6
CONTINUOUS
 10
23.43100
 20
69.22300
 30
 0
 11
23.47700
 21
69.25700
  0
LINE
  8
Gravur
 62
   7
 39
0.200
  6
CONTINUOUS
 10
23.47700
 20
69.25700
 30
 0
 11
23.51700
 21
69.29700
  0
LINE
  8
Gravur
 62
   7
 39
0.200
  6
CONTINUOUS
 10
23.51700
 20
69.29700
 30
 0
 11
23.55100
 21
69.34300
  0
LINE
  8
Gravur
 62
   7
 39
0.200
  6
CONTINUOUS
 10
23.55100
 20
69.34300
 30
 0
 11
23.57800
 21
69.39300
  0
LINE
  8
Gravur
 62
   7
 39
0.200
  6
CONTINUOUS
 10
23.57800
 20
69.39300
 30
 0
 11
23.59800
 21
69.44700
  0
LINE
  8
Gravur
 62
   7
 39
0.200
  6
CONTINUOUS
 10
23.59800
 20
69.44700
 30
 0
 11
23.61000
 21
69.50300
  0
LINE
  8
Gravur
 62
   7
 39
0.200
  6
CONTINUOUS
 10
23.61000
 20
69.50300
 30
 0
 11
23.61400
 21
69.56000
  0
LINE
  8
Gravur
 62
   7
 39
0.200
  6
CONTINUOUS
 10
20.73400
 20
70.00000
 30
 0
 11
22.17400
 21
70.00000
  0
LINE
  8
Gravur
 62
   7
 39
0.200
  6
CONTINUOUS
 10
22.17400
 20
70.00000
 30
 0
 11
23.61400
 21
70.00000
  0
LINE
  8
Gravur
 62
   7
 39
0.200
  6
CONTINUOUS
 10
23.61400
 20
70.00000
 30
 0
 11
22.41400
 21
70.00000
  0
LINE
  8
Gravur
 62
   7
 39
0.200
  6
CONTINUOUS
 10
22.41400
 20
70.00000
 30
 0
 11
22.28600
 21
70.00900
  0
LINE
  8
Gravur
 62
   7
 39
0.200
  6
CONTINUOUS
 10
22.28600
 20
70.00900
 30
 0
 11
22.16000
 21
70.03600
  0
LINE
  8
Gravur
 62
   7
 39
0.200
  6
CONTINUOUS
 10
22.16000
 20
70.03600
 30
 0
 11
22.04000
 21
70.08100
  0
LINE
  8
Gravur
 62
   7
 39
0.200
  6
CONTINUOUS
 10
22.04000
 20
70.08100
 30
 0
 11
21.92800
 21
70.14400
  0
LINE
  8
Gravur
 62
   7
 39
0.200
  6
CONTINUOUS
 10
21.92800
 20
70.14400
 30
 0
 11
21.82600
 21
70.22200
  0
LINE
  8
Gravur
 62
   7
 39
0.200
  6
CONTINUOUS
 10
21.82600
 20
70.22200
 30
 0
 11
21.73700
 21
70.31500
  0
LINE
  8
Gravur
 62
   7
 39
0.200
  6
CONTINUOUS
 10
21.73700
 20
70.31500
 30
 0
 11
21.66200
 21
70.41900
  0
LINE
  8
Gravur
 62
   7
 39
0.200
  6
CONTINUOUS
 10
21.66200
 20
70.41900
 30
 0
 11
21.60300
 21
70.53300
  0
LINE
  8
Gravur
 62
   7
 39
0.200
  6
CONTINUOUS
 10
21.60300
 20
70.53300
 30
 0
 11
21.56200
 21
70.65500
  0
LINE
  8
Gravur
 62
   7
 39
0.200
  6
CONTINUOUS
 10
21.56200
 20
70.65500
 30
 0
 11
21.53900
 21
70.78100
  0
LINE
  8
Gravur
 62
   7
 39
0.200
  6
CONTINUOUS
 10
21.53900
 20
70.78100
 30
 0
 11
21.53400
 21
70.88000
  0
LINE
  8
Gravur
 62
   7
 39
0.200
  6
CONTINUOUS
 10
21.53400
 20
70.88000
 30
 0
 11
21.54000
 21
70.97300
  0
LINE
  8
Gravur
 62
   7
 39
0.200
  6
CONTINUOUS
 10
21.54000
 20
70.97300
 30
 0
 11
21.56000
 21
71.06500
  0
LINE
  8
Gravur
 62
   7
 39
0.200
  6
CONTINUOUS
 10
21.56000
 20
71.06500
 30
 0
 11
21.59400
 21
71.15200
  0
LINE
  8
Gravur
 62
   7
 39
0.200
  6
CONTINUOUS
 10
21.59400
 20
71.15200
 30
 0
 11
21.63900
 21
71.23400
  0
LINE
  8
Gravur
 62
   7
 39
0.200
  6
CONTINUOUS
 10
21.63900
 20
71.23400
 30
 0
 11
21.69600
 21
71.30800
  0
LINE
  8
Gravur
 62
   7
 39
0.200
  6
CONTINUOUS
 10
21.69600
 20
71.30800
 30
 0
 11
21.76400
 21
71.37300
  0
LINE
  8
Gravur
 62
   7
 39
0.200
  6
CONTINUOUS
 10
21.76400
 20
71.37300
 30
 0
 11
21.84000
 21
71.42700
  0
LINE
  8
Gravur
 62
   7
 39
0.200
  6
CONTINUOUS
 10
21.84000
 20
71.42700
 30
 0
 11
21.92300
 21
71.47000
  0
LINE
  8
Gravur
 62
   7
 39
0.200
  6
CONTINUOUS
 10
21.92300
 20
71.47000
 30
 0
 11
22.01200
 21
71.50000
  0
LINE
  8
Gravur
 62
   7
 39
0.200
  6
CONTINUOUS
 10
22.01200
 20
71.50000
 30
 0
 11
22.10400
 21
71.51600
  0
LINE
  8
Gravur
 62
   7
 39
0.200
  6
CONTINUOUS
 10
22.10400
 20
71.51600
 30
 0
 11
22.17400
 21
71.52000
  0
LINE
  8
Gravur
 62
   7
 39
0.200
  6
CONTINUOUS
 10
22.17400
 20
71.52000
 30
 0
 11
23.61400
 21
71.52000
  0
LINE
  8
Gravur
 62
   7
 39
0.200
  6
CONTINUOUS
 10
22.55400
 20
71.98000
 30
 0
 11
22.55400
 21
73.74000
  0
LINE
  8
Gravur
 62
   7
 39
0.200
  6
CONTINUOUS
 10
22.55400
 20
73.74000
 30
 0
 11
22.39400
 21
73.74000
  0
LINE
  8
Gravur
 62
   7
 39
0.200
  6
CONTINUOUS
 10
22.39400
 20
73.74000
 30
 0
 11
22.26400
 21
73.73100
  0
LINE
  8
Gravur
 62
   7
 39
0.200
  6
CONTINUOUS
 10
22.26400
 20
73.73100
 30
 0
 11
22.13700
 21
73.70300
  0
LINE
  8
Gravur
 62
   7
 39
0.200
  6
CONTINUOUS
 10
22.13700
 20
73.70300
 30
 0
 11
22.01600
 21
73.65600
  0
LINE
  8
Gravur
 62
   7
 39
0.200
  6
CONTINUOUS
 10
22.01600
 20
73.65600
 30
 0
 11
21.90300
 21
73.59200
  0
LINE
  8
Gravur
 62
   7
 39
0.200
  6
CONTINUOUS
 10
21.90300
 20
73.59200
 30
 0
 11
21.80000
 21
73.51200
  0
LINE
  8
Gravur
 62
   7
 39
0.200
  6
CONTINUOUS
 10
21.80000
 20
73.51200
 30
 0
 11
21.71100
 21
73.41800
  0
LINE
  8
Gravur
 62
   7
 39
0.200
  6
CONTINUOUS
 10
21.71100
 20
73.41800
 30
 0
 11
21.63600
 21
73.31100
  0
LINE
  8
Gravur
 62
   7
 39
0.200
  6
CONTINUOUS
 10
21.63600
 20
73.31100
 30
 0
 11
21.57800
 21
73.19500
  0
LINE
  8
Gravur
 62
   7
 39
0.200
  6
CONTINUOUS
 10
21.57800
 20
73.19500
 30
 0
 11
21.53800
 21
73.07200
  0
LINE
  8
Gravur
 62
   7
 39
0.200
  6
CONTINUOUS
 10
21.53800
 20
73.07200
 30
 0
 11
21.51700
 21
72.94300
  0
LINE
  8
Gravur
 62
   7
 39
0.200
  6
CONTINUOUS
 10
21.51700
 20
72.94300
 30
 0
 11
21.51400
 21
72.81300
  0
LINE
  8
Gravur
 62
   7
 39
0.200
  6
CONTINUOUS
 10
21.51400
 20
72.81300
 30
 0
 11
21.53100
 21
72.68400
  0
LINE
  8
Gravur
 62
   7
 39
0.200
  6
CONTINUOUS
 10
21.53100
 20
72.68400
 30
 0
 11
21.56700
 21
72.55900
  0
LINE
  8
Gravur
 62
   7
 39
0.200
  6
CONTINUOUS
 10
21.56700
 20
72.55900
 30
 0
 11
21.62100
 21
72.44100
  0
LINE
  8
Gravur
 62
   7
 39
0.200
  6
CONTINUOUS
 10
21.62100
 20
72.44100
 30
 0
 11
21.69200
 21
72.33200
  0
LINE
  8
Gravur
 62
   7
 39
0.200
  6
CONTINUOUS
 10
21.69200
 20
72.33200
 30
 0
 11
21.77800
 21
72.23500
  0
LINE
  8
Gravur
 62
   7
 39
0.200
  6
CONTINUOUS
 10
21.77800
 20
72.23500
 30
 0
 11
21.87800
 21
72.15100
  0
LINE
  8
Gravur
 62
   7
 39
0.200
  6
CONTINUOUS
 10
21.87800
 20
72.15100
 30
 0
 11
21.98800
 21
72.08300
  0
LINE
  8
Gravur
 62
   7
 39
0.200
  6
CONTINUOUS
 10
21.98800
 20
72.08300
 30
 0
 11
22.10800
 21
72.03300
  0
LINE
  8
Gravur
 62
   7
 39
0.200
  6
CONTINUOUS
 10
22.10800
 20
72.03300
 30
 0
 11
22.23400
 21
72.00000
  0
LINE
  8
Gravur
 62
   7
 39
0.200
  6
CONTINUOUS
 10
22.23400
 20
72.00000
 30
 0
 11
22.23400
 21
72.00000
  0
LINE
  8
Gravur
 62
   7
 39
0.200
  6
CONTINUOUS
 10
22.23400
 20
72.00000
 30
 0
 11
22.45300
 21
71.97200
  0
LINE
  8
Gravur
 62
   7
 39
0.200
  6
CONTINUOUS
 10
22.45300
 20
71.97200
 30
 0
 11
22.67500
 21
71.97200
  0
LINE
  8
Gravur
 62
   7
 39
0.200
  6
CONTINUOUS
 10
22.67500
 20
71.97200
 30
 0
 11
22.89400
 21
72.00000
  0
LINE
  8
Gravur
 62
   7
 39
0.200
  6
CONTINUOUS
 10
22.89400
 20
72.00000
 30
 0
 11
22.89400
 21
72.00000
  0
LINE
  8
Gravur
 62
   7
 39
0.200
  6
CONTINUOUS
 10
22.89400
 20
72.00000
 30
 0
 11
23.02200
 21
72.03300
  0
LINE
  8
Gravur
 62
   7
 39
0.200
  6
CONTINUOUS
 10
23.02200
 20
72.03300
 30
 0
 11
23.14500
 21
72.08400
  0
LINE
  8
Gravur
 62
   7
 39
0.200
  6
CONTINUOUS
 10
23.14500
 20
72.08400
 30
 0
 11
23.25900
 21
72.15100
  0
LINE
  8
Gravur
 62
   7
 39
0.200
  6
CONTINUOUS
 10
23.25900
 20
72.15100
 30
 0
 11
23.36300
 21
72.23300
  0
LINE
  8
Gravur
 62
   7
 39
0.200
  6
CONTINUOUS
 10
23.36300
 20
72.23300
 30
 0
 11
23.45400
 21
72.32900
  0
LINE
  8
Gravur
 62
   7
 39
0.200
  6
CONTINUOUS
 10
23.45400
 20
72.32900
 30
 0
 11
23.53100
 21
72.43600
  0
LINE
  8
Gravur
 62
   7
 39
0.200
  6
CONTINUOUS
 10
23.53100
 20
72.43600
 30
 0
 11
23.59300
 21
72.55400
  0
LINE
  8
Gravur
 62
   7
 39
0.200
  6
CONTINUOUS
 10
23.59300
 20
72.55400
 30
 0
 11
23.63800
 21
72.67800
  0
LINE
  8
Gravur
 62
   7
 39
0.200
  6
CONTINUOUS
 10
23.63800
 20
72.67800
 30
 0
 11
23.66500
 21
72.80800
  0
LINE
  8
Gravur
 62
   7
 39
0.200
  6
CONTINUOUS
 10
23.66500
 20
72.80800
 30
 0
 11
23.67400
 21
72.94000
  0
LINE
  8
Gravur
 62
   7
 39
0.200
  6
CONTINUOUS
 10
23.67400
 20
72.94000
 30
 0
 11
23.67400
 21
72.94000
  0
LINE
  8
Gravur
 62
   7
 39
0.200
  6
CONTINUOUS
 10
23.67400
 20
72.94000
 30
 0
 11
23.66300
 21
73.08000
  0
LINE
  8
Gravur
 62
   7
 39
0.200
  6
CONTINUOUS
 10
23.66300
 20
73.08000
 30
 0
 11
23.63300
 21
73.21700
  0
LINE
  8
Gravur
 62
   7
 39
0.200
  6
CONTINUOUS
 10
23.63300
 20
73.21700
 30
 0
 11
23.58300
 21
73.34700
  0
LINE
  8
Gravur
 62
   7
 39
0.200
  6
CONTINUOUS
 10
23.58300
 20
73.34700
 30
 0
 11
23.51400
 21
73.47000
  0
LINE
  8
Gravur
 62
   7
 39
0.200
  6
CONTINUOUS
 10
23.51400
 20
73.47000
 30
 0
 11
23.42800
 21
73.58100
  0
LINE
  8
Gravur
 62
   7
 39
0.200
  6
CONTINUOUS
 10
23.42800
 20
73.58100
 30
 0
 11
23.32800
 21
73.67800
  0
LINE
  8
Gravur
 62
   7
 39
0.200
  6
CONTINUOUS
 10
23.32800
 20
73.67800
 30
 0
 11
23.21400
 21
73.76000
  0
LINE
  8
Gravur
 62
   7
 39
0.200
  6
CONTINUOUS
 10
21.61400
 20
74.20000
 30
 0
 11
23.61400
 21
74.20000
  0
LINE
  8
Gravur
 62
   7
 39
0.200
  6
CONTINUOUS
 10
23.61400
 20
74.20000
 30
 0
 11
22.41400
 21
74.20000
  0
LINE
  8
Gravur
 62
   7
 39
0.200
  6
CONTINUOUS
 10
22.41400
 20
74.20000
 30
 0
 11
22.28300
 21
74.21000
  0
LINE
  8
Gravur
 62
   7
 39
0.200
  6
CONTINUOUS
 10
22.28300
 20
74.21000
 30
 0
 11
22.15500
 21
74.23900
  0
LINE
  8
Gravur
 62
   7
 39
0.200
  6
CONTINUOUS
 10
22.15500
 20
74.23900
 30
 0
 11
22.03200
 21
74.28700
  0
LINE
  8
Gravur
 62
   7
 39
0.200
  6
CONTINUOUS
 10
22.03200
 20
74.28700
 30
 0
 11
21.91800
 21
74.35300
  0
LINE
  8
Gravur
 62
   7
 39
0.200
  6
CONTINUOUS
 10
21.91800
 20
74.35300
 30
 0
 11
21.81500
 21
74.43400
  0
LINE
  8
Gravur
 62
   7
 39
0.200
  6
CONTINUOUS
 10
21.81500
 20
74.43400
 30
 0
 11
21.72400
 21
74.53000
  0
LINE
  8
Gravur
 62
   7
 39
0.200
  6
CONTINUOUS
 10
21.72400
 20
74.53000
 30
 0
 11
21.64900
 21
74.63700
  0
LINE
  8
Gravur
 62
   7
 39
0.200
  6
CONTINUOUS
 10
21.64900
 20
74.63700
 30
 0
 11
21.59000
 21
74.75500
  0
LINE
  8
Gravur
 62
   7
 39
0.200
  6
CONTINUOUS
 10
21.59000
 20
74.75500
 30
 0
 11
21.55000
 21
74.88000
  0
LINE
  8
Gravur
 62
   7
 39
0.200
  6
CONTINUOUS
 10
21.55000
 20
74.88000
 30
 0
 11
21.53400
 21
74.96000
  0
LINE
  8
Gravur
 62
   7
 39
0.200
  6
CONTINUOUS
 10
21.61400
 20
75.40000
 30
 0
 11
23.61400
 21
75.40000
  0
LINE
  8
Gravur
 62
   7
 39
0.200
  6
CONTINUOUS
 10
23.61400
 20
75.40000
 30
 0
 11
22.41400
 21
75.40000
  0
LINE
  8
Gravur
 62
   7
 39
0.200
  6
CONTINUOUS
 10
22.41400
 20
75.40000
 30
 0
 11
22.28600
 21
75.40900
  0
LINE
  8
Gravur
 62
   7
 39
0.200
  6
CONTINUOUS
 10
22.28600
 20
75.40900
 30
 0
 11
22.16000
 21
75.43600
  0
LINE
  8
Gravur
 62
   7
 39
0.200
  6
CONTINUOUS
 10
22.16000
 20
75.43600
 30
 0
 11
22.04000
 21
75.48100
  0
LINE
  8
Gravur
 62
   7
 39
0.200
  6
CONTINUOUS
 10
22.04000
 20
75.48100
 30
 0
 11
21.92800
 21
75.54400
  0
LINE
  8
Gravur
 62
   7
 39
0.200
  6
CONTINUOUS
 10
21.92800
 20
75.54400
 30
 0
 11
21.82600
 21
75.62200
  0
LINE
  8
Gravur
 62
   7
 39
0.200
  6
CONTINUOUS
 10
21.82600
 20
75.62200
 30
 0
 11
21.73700
 21
75.71500
  0
LINE
  8
Gravur
 62
   7
 39
0.200
  6
CONTINUOUS
 10
21.73700
 20
75.71500
 30
 0
 11
21.66200
 21
75.81900
  0
LINE
  8
Gravur
 62
   7
 39
0.200
  6
CONTINUOUS
 10
21.66200
 20
75.81900
 30
 0
 11
21.60300
 21
75.93300
  0
LINE
  8
Gravur
 62
   7
 39
0.200
  6
CONTINUOUS
 10
21.60300
 20
75.93300
 30
 0
 11
21.56200
 21
76.05500
  0
LINE
  8
Gravur
 62
   7
 39
0.200
  6
CONTINUOUS
 10
21.56200
 20
76.05500
 30
 0
 11
21.53900
 21
76.18100
  0
LINE
  8
Gravur
 62
   7
 39
0.200
  6
CONTINUOUS
 10
21.53900
 20
76.18100
 30
 0
 11
21.53400
 21
76.28000
  0
LINE
  8
Gravur
 62
   7
 39
0.200
  6
CONTINUOUS
 10
21.53400
 20
76.28000
 30
 0
 11
21.54000
 21
76.37300
  0
LINE
  8
Gravur
 62
   7
 39
0.200
  6
CONTINUOUS
 10
21.54000
 20
76.37300
 30
 0
 11
21.56000
 21
76.46500
  0
LINE
  8
Gravur
 62
   7
 39
0.200
  6
CONTINUOUS
 10
21.56000
 20
76.46500
 30
 0
 11
21.59400
 21
76.55200
  0
LINE
  8
Gravur
 62
   7
 39
0.200
  6
CONTINUOUS
 10
21.59400
 20
76.55200
 30
 0
 11
21.63900
 21
76.63400
  0
LINE
  8
Gravur
 62
   7
 39
0.200
  6
CONTINUOUS
 10
21.63900
 20
76.63400
 30
 0
 11
21.69600
 21
76.70800
  0
LINE
  8
Gravur
 62
   7
 39
0.200
  6
CONTINUOUS
 10
21.69600
 20
76.70800
 30
 0
 11
21.76400
 21
76.77300
  0
LINE
  8
Gravur
 62
   7
 39
0.200
  6
CONTINUOUS
 10
21.76400
 20
76.77300
 30
 0
 11
21.84000
 21
76.82700
  0
LINE
  8
Gravur
 62
   7
 39
0.200
  6
CONTINUOUS
 10
21.84000
 20
76.82700
 30
 0
 11
21.92300
 21
76.87000
  0
LINE
  8
Gravur
 62
   7
 39
0.200
  6
CONTINUOUS
 10
21.92300
 20
76.87000
 30
 0
 11
22.01200
 21
76.90000
  0
LINE
  8
Gravur
 62
   7
 39
0.200
  6
CONTINUOUS
 10
22.01200
 20
76.90000
 30
 0
 11
22.10400
 21
76.91600
  0
LINE
  8
Gravur
 62
   7
 39
0.200
  6
CONTINUOUS
 10
22.10400
 20
76.91600
 30
 0
 11
22.17400
 21
76.92000
  0
LINE
  8
Gravur
 62
   7
 39
0.200
  6
CONTINUOUS
 10
22.17400
 20
76.92000
 30
 0
 11
23.61400
 21
76.92000
  0
LINE
  8
Gravur
 62
   7
 39
0.200
  6
CONTINUOUS
 10
22.55400
 20
77.38000
 30
 0
 11
22.55400
 21
79.14000
  0
LINE
  8
Gravur
 62
   7
 39
0.200
  6
CONTINUOUS
 10
22.55400
 20
79.14000
 30
 0
 11
22.39400
 21
79.14000
  0
LINE
  8
Gravur
 62
   7
 39
0.200
  6
CONTINUOUS
 10
22.39400
 20
79.14000
 30
 0
 11
22.26400
 21
79.13100
  0
LINE
  8
Gravur
 62
   7
 39
0.200
  6
CONTINUOUS
 10
22.26400
 20
79.13100
 30
 0
 11
22.13700
 21
79.10300
  0
LINE
  8
Gravur
 62
   7
 39
0.200
  6
CONTINUOUS
 10
22.13700
 20
79.10300
 30
 0
 11
22.01600
 21
79.05600
  0
LINE
  8
Gravur
 62
   7
 39
0.200
  6
CONTINUOUS
 10
22.01600
 20
79.05600
 30
 0
 11
21.90300
 21
78.99200
  0
LINE
  8
Gravur
 62
   7
 39
0.200
  6
CONTINUOUS
 10
21.90300
 20
78.99200
 30
 0
 11
21.80000
 21
78.91200
  0
LINE
  8
Gravur
 62
   7
 39
0.200
  6
CONTINUOUS
 10
21.80000
 20
78.91200
 30
 0
 11
21.71100
 21
78.81800
  0
LINE
  8
Gravur
 62
   7
 39
0.200
  6
CONTINUOUS
 10
21.71100
 20
78.81800
 30
 0
 11
21.63600
 21
78.71100
  0
LINE
  8
Gravur
 62
   7
 39
0.200
  6
CONTINUOUS
 10
21.63600
 20
78.71100
 30
 0
 11
21.57800
 21
78.59500
  0
LINE
  8
Gravur
 62
   7
 39
0.200
  6
CONTINUOUS
 10
21.57800
 20
78.59500
 30
 0
 11
21.53800
 21
78.47200
  0
LINE
  8
Gravur
 62
   7
 39
0.200
  6
CONTINUOUS
 10
21.53800
 20
78.47200
 30
 0
 11
21.51700
 21
78.34300
  0
LINE
  8
Gravur
 62
   7
 39
0.200
  6
CONTINUOUS
 10
21.51700
 20
78.34300
 30
 0
 11
21.51400
 21
78.21300
  0
LINE
  8
Gravur
 62
   7
 39
0.200
  6
CONTINUOUS
 10
21.51400
 20
78.21300
 30
 0
 11
21.53100
 21
78.08400
  0
LINE
  8
Gravur
 62
   7
 39
0.200
  6
CONTINUOUS
 10
21.53100
 20
78.08400
 30
 0
 11
21.56700
 21
77.95900
  0
LINE
  8
Gravur
 62
   7
 39
0.200
  6
CONTINUOUS
 10
21.56700
 20
77.95900
 30
 0
 11
21.62100
 21
77.84100
  0
LINE
  8
Gravur
 62
   7
 39
0.200
  6
CONTINUOUS
 10
21.62100
 20
77.84100
 30
 0
 11
21.69200
 21
77.73200
  0
LINE
  8
Gravur
 62
   7
 39
0.200
  6
CONTINUOUS
 10
21.69200
 20
77.73200
 30
 0
 11
21.77800
 21
77.63500
  0
LINE
  8
Gravur
 62
   7
 39
0.200
  6
CONTINUOUS
 10
21.77800
 20
77.63500
 30
 0
 11
21.87800
 21
77.55100
  0
LINE
  8
Gravur
 62
   7
 39
0.200
  6
CONTINUOUS
 10
21.87800
 20
77.55100
 30
 0
 11
21.98800
 21
77.48300
  0
LINE
  8
Gravur
 62
   7
 39
0.200
  6
CONTINUOUS
 10
21.98800
 20
77.48300
 30
 0
 11
22.10800
 21
77.43300
  0
LINE
  8
Gravur
 62
   7
 39
0.200
  6
CONTINUOUS
 10
22.10800
 20
77.43300
 30
 0
 11
22.23400
 21
77.40000
  0
LINE
  8
Gravur
 62
   7
 39
0.200
  6
CONTINUOUS
 10
22.23400
 20
77.40000
 30
 0
 11
22.23400
 21
77.40000
  0
LINE
  8
Gravur
 62
   7
 39
0.200
  6
CONTINUOUS
 10
22.23400
 20
77.40000
 30
 0
 11
22.45300
 21
77.37200
  0
LINE
  8
Gravur
 62
   7
 39
0.200
  6
CONTINUOUS
 10
22.45300
 20
77.37200
 30
 0
 11
22.67500
 21
77.37200
  0
LINE
  8
Gravur
 62
   7
 39
0.200
  6
CONTINUOUS
 10
22.67500
 20
77.37200
 30
 0
 11
22.89400
 21
77.40000
  0
LINE
  8
Gravur
 62
   7
 39
0.200
  6
CONTINUOUS
 10
22.89400
 20
77.40000
 30
 0
 11
22.89400
 21
77.40000
  0
LINE
  8
Gravur
 62
   7
 39
0.200
  6
CONTINUOUS
 10
22.89400
 20
77.40000
 30
 0
 11
23.02200
 21
77.43300
  0
LINE
  8
Gravur
 62
   7
 39
0.200
  6
CONTINUOUS
 10
23.02200
 20
77.43300
 30
 0
 11
23.14500
 21
77.48400
  0
LINE
  8
Gravur
 62
   7
 39
0.200
  6
CONTINUOUS
 10
23.14500
 20
77.48400
 30
 0
 11
23.25900
 21
77.55100
  0
LINE
  8
Gravur
 62
   7
 39
0.200
  6
CONTINUOUS
 10
23.25900
 20
77.55100
 30
 0
 11
23.36300
 21
77.63300
  0
LINE
  8
Gravur
 62
   7
 39
0.200
  6
CONTINUOUS
 10
23.36300
 20
77.63300
 30
 0
 11
23.45400
 21
77.72900
  0
LINE
  8
Gravur
 62
   7
 39
0.200
  6
CONTINUOUS
 10
23.45400
 20
77.72900
 30
 0
 11
23.53100
 21
77.83600
  0
LINE
  8
Gravur
 62
   7
 39
0.200
  6
CONTINUOUS
 10
23.53100
 20
77.83600
 30
 0
 11
23.59300
 21
77.95400
  0
LINE
  8
Gravur
 62
   7
 39
0.200
  6
CONTINUOUS
 10
23.59300
 20
77.95400
 30
 0
 11
23.63800
 21
78.07800
  0
LINE
  8
Gravur
 62
   7
 39
0.200
  6
CONTINUOUS
 10
23.63800
 20
78.07800
 30
 0
 11
23.66500
 21
78.20800
  0
LINE
  8
Gravur
 62
   7
 39
0.200
  6
CONTINUOUS
 10
23.66500
 20
78.20800
 30
 0
 11
23.67400
 21
78.34000
  0
LINE
  8
Gravur
 62
   7
 39
0.200
  6
CONTINUOUS
 10
23.67400
 20
78.34000
 30
 0
 11
23.66300
 21
78.48000
  0
LINE
  8
Gravur
 62
   7
 39
0.200
  6
CONTINUOUS
 10
23.66300
 20
78.48000
 30
 0
 11
23.63300
 21
78.61700
  0
LINE
  8
Gravur
 62
   7
 39
0.200
  6
CONTINUOUS
 10
23.63300
 20
78.61700
 30
 0
 11
23.58300
 21
78.74700
  0
LINE
  8
Gravur
 62
   7
 39
0.200
  6
CONTINUOUS
 10
23.58300
 20
78.74700
 30
 0
 11
23.51400
 21
78.87000
  0
LINE
  8
Gravur
 62
   7
 39
0.200
  6
CONTINUOUS
 10
23.51400
 20
78.87000
 30
 0
 11
23.42800
 21
78.98100
  0
LINE
  8
Gravur
 62
   7
 39
0.200
  6
CONTINUOUS
 10
23.42800
 20
78.98100
 30
 0
 11
23.32800
 21
79.07800
  0
LINE
  8
Gravur
 62
   7
 39
0.200
  6
CONTINUOUS
 10
23.32800
 20
79.07800
 30
 0
 11
23.21400
 21
79.16000
  0
LINE
  8
Gravur
 62
   7
 39
0.200
  6
CONTINUOUS
 10
21.53400
 20
79.60000
 30
 0
 11
21.53400
 21
80.32000
  0
LINE
  8
Gravur
 62
   7
 39
0.200
  6
CONTINUOUS
 10
21.53400
 20
80.32000
 30
 0
 11
21.53400
 21
79.92000
  0
LINE
  8
Gravur
 62
   7
 39
0.200
  6
CONTINUOUS
 10
21.53400
 20
79.92000
 30
 0
 11
20.89400
 21
79.92000
  0
LINE
  8
Gravur
 62
   7
 39
0.200
  6
CONTINUOUS
 10
20.89400
 20
79.92000
 30
 0
 11
23.21400
 21
79.92000
  0
LINE
  8
Gravur
 62
   7
 39
0.200
  6
CONTINUOUS
 10
23.21400
 20
79.92000
 30
 0
 11
23.27100
 21
79.92400
  0
LINE
  8
Gravur
 62
   7
 39
0.200
  6
CONTINUOUS
 10
23.27100
 20
79.92400
 30
 0
 11
23.32700
 21
79.93600
  0
LINE
  8
Gravur
 62
   7
 39
0.200
  6
CONTINUOUS
 10
23.32700
 20
79.93600
 30
 0
 11
23.38100
 21
79.95600
  0
LINE
  8
Gravur
 62
   7
 39
0.200
  6
CONTINUOUS
 10
23.38100
 20
79.95600
 30
 0
 11
23.43100
 21
79.98300
  0
LINE
  8
Gravur
 62
   7
 39
0.200
  6
CONTINUOUS
 10
23.43100
 20
79.98300
 30
 0
 11
23.47700
 21
80.01700
  0
LINE
  8
Gravur
 62
   7
 39
0.200
  6
CONTINUOUS
 10
23.47700
 20
80.01700
 30
 0
 11
23.51700
 21
80.05700
  0
LINE
  8
Gravur
 62
   7
 39
0.200
  6
CONTINUOUS
 10
23.51700
 20
80.05700
 30
 0
 11
23.55100
 21
80.10300
  0
LINE
  8
Gravur
 62
   7
 39
0.200
  6
CONTINUOUS
 10
23.55100
 20
80.10300
 30
 0
 11
23.57800
 21
80.15300
  0
LINE
  8
Gravur
 62
   7
 39
0.200
  6
CONTINUOUS
 10
23.57800
 20
80.15300
 30
 0
 11
23.59800
 21
80.20700
  0
LINE
  8
Gravur
 62
   7
 39
0.200
  6
CONTINUOUS
 10
23.59800
 20
80.20700
 30
 0
 11
23.61000
 21
80.26300
  0
LINE
  8
Gravur
 62
   7
 39
0.200
  6
CONTINUOUS
 10
23.61000
 20
80.26300
 30
 0
 11
23.61400
 21
80.32000
  0
LINE
  8
Gravur
 62
   7
 39
0.200
  6
CONTINUOUS
 10
23.61400
 20
37.42000
 30
 0
 11
22.17400
 21
37.42000
  0
LINE
  8
Gravur
 62
   7
 39
0.200
  6
CONTINUOUS
 10
22.17400
 20
37.42000
 30
 0
 11
20.73400
 21
37.42000
  0
LINE
  8
Gravur
 62
   7
 39
0.200
  6
CONTINUOUS
 10
20.73400
 20
37.42000
 30
 0
 11
20.73400
 21
38.70000
  0
LINE
  8
Gravur
 62
   7
 39
0.200
  6
CONTINUOUS
 10
20.73400
 20
38.70000
 30
 0
 11
20.74200
 21
38.80700
  0
LINE
  8
Gravur
 62
   7
 39
0.200
  6
CONTINUOUS
 10
20.74200
 20
38.80700
 30
 0
 11
20.76600
 21
38.91200
  0
LINE
  8
Gravur
 62
   7
 39
0.200
  6
CONTINUOUS
 10
20.76600
 20
38.91200
 30
 0
 11
20.80500
 21
39.01200
  0
LINE
  8
Gravur
 62
   7
 39
0.200
  6
CONTINUOUS
 10
20.80500
 20
39.01200
 30
 0
 11
20.85900
 21
39.10600
  0
LINE
  8
Gravur
 62
   7
 39
0.200
  6
CONTINUOUS
 10
20.85900
 20
39.10600
 30
 0
 11
20.92600
 21
39.19000
  0
LINE
  8
Gravur
 62
   7
 39
0.200
  6
CONTINUOUS
 10
20.92600
 20
39.19000
 30
 0
 11
21.00500
 21
39.26300
  0
LINE
  8
Gravur
 62
   7
 39
0.200
  6
CONTINUOUS
 10
21.00500
 20
39.26300
 30
 0
 11
21.09400
 21
39.32400
  0
LINE
  8
Gravur
 62
   7
 39
0.200
  6
CONTINUOUS
 10
21.09400
 20
39.32400
 30
 0
 11
21.19100
 21
39.37000
  0
LINE
  8
Gravur
 62
   7
 39
0.200
  6
CONTINUOUS
 10
21.19100
 20
39.37000
 30
 0
 11
21.29400
 21
39.40200
  0
LINE
  8
Gravur
 62
   7
 39
0.200
  6
CONTINUOUS
 10
21.29400
 20
39.40200
 30
 0
 11
21.40000
 21
39.41800
  0
LINE
  8
Gravur
 62
   7
 39
0.200
  6
CONTINUOUS
 10
21.40000
 20
39.41800
 30
 0
 11
21.50800
 21
39.41800
  0
LINE
  8
Gravur
 62
   7
 39
0.200
  6
CONTINUOUS
 10
21.50800
 20
39.41800
 30
 0
 11
21.61400
 21
39.40200
  0
LINE
  8
Gravur
 62
   7
 39
0.200
  6
CONTINUOUS
 10
21.61400
 20
39.40200
 30
 0
 11
21.71700
 21
39.37000
  0
LINE
  8
Gravur
 62
   7
 39
0.200
  6
CONTINUOUS
 10
21.71700
 20
39.37000
 30
 0
 11
21.81400
 21
39.32400
  0
LINE
  8
Gravur
 62
   7
 39
0.200
  6
CONTINUOUS
 10
21.81400
 20
39.32400
 30
 0
 11
21.90300
 21
39.26300
  0
LINE
  8
Gravur
 62
   7
 39
0.200
  6
CONTINUOUS
 10
21.90300
 20
39.26300
 30
 0
 11
21.98200
 21
39.19000
  0
LINE
  8
Gravur
 62
   7
 39
0.200
  6
CONTINUOUS
 10
21.98200
 20
39.19000
 30
 0
 11
22.04900
 21
39.10600
  0
LINE
  8
Gravur
 62
   7
 39
0.200
  6
CONTINUOUS
 10
22.04900
 20
39.10600
 30
 0
 11
22.10300
 21
39.01200
  0
LINE
  8
Gravur
 62
   7
 39
0.200
  6
CONTINUOUS
 10
22.10300
 20
39.01200
 30
 0
 11
22.14200
 21
38.91200
  0
LINE
  8
Gravur
 62
   7
 39
0.200
  6
CONTINUOUS
 10
22.14200
 20
38.91200
 30
 0
 11
22.16600
 21
38.80700
  0
LINE
  8
Gravur
 62
   7
 39
0.200
  6
CONTINUOUS
 10
22.16600
 20
38.80700
 30
 0
 11
22.17400
 21
38.70000
  0
LINE
  8
Gravur
 62
   7
 39
0.200
  6
CONTINUOUS
 10
22.17400
 20
38.70000
 30
 0
 11
22.17400
 21
37.42000
  0
LINE
  8
Gravur
 62
   7
 39
0.200
  6
CONTINUOUS
 10
22.17400
 20
37.42000
 30
 0
 11
22.17400
 21
38.70000
  0
LINE
  8
Gravur
 62
   7
 39
0.200
  6
CONTINUOUS
 10
22.17400
 20
38.70000
 30
 0
 11
22.18100
 21
38.79500
  0
LINE
  8
Gravur
 62
   7
 39
0.200
  6
CONTINUOUS
 10
22.18100
 20
38.79500
 30
 0
 11
22.20200
 21
38.88900
  0
LINE
  8
Gravur
 62
   7
 39
0.200
  6
CONTINUOUS
 10
22.20200
 20
38.88900
 30
 0
 11
22.23700
 21
38.97800
  0
LINE
  8
Gravur
 62
   7
 39
0.200
  6
CONTINUOUS
 10
22.23700
 20
38.97800
 30
 0
 11
22.28400
 21
39.06100
  0
LINE
  8
Gravur
 62
   7
 39
0.200
  6
CONTINUOUS
 10
22.28400
 20
39.06100
 30
 0
 11
22.34400
 21
39.13600
  0
LINE
  8
Gravur
 62
   7
 39
0.200
  6
CONTINUOUS
 10
22.34400
 20
39.13600
 30
 0
 11
22.41400
 21
39.20100
  0
LINE
  8
Gravur
 62
   7
 39
0.200
  6
CONTINUOUS
 10
22.41400
 20
39.20100
 30
 0
 11
22.49200
 21
39.25500
  0
LINE
  8
Gravur
 62
   7
 39
0.200
  6
CONTINUOUS
 10
22.49200
 20
39.25500
 30
 0
 11
22.57800
 21
39.29700
  0
LINE
  8
Gravur
 62
   7
 39
0.200
  6
CONTINUOUS
 10
22.57800
 20
39.29700
 30
 0
 11
22.67000
 21
39.32600
  0
LINE
  8
Gravur
 62
   7
 39
0.200
  6
CONTINUOUS
 10
22.67000
 20
39.32600
 30
 0
 11
22.76400
 21
39.34100
  0
LINE
  8
Gravur
 62
   7
 39
0.200
  6
CONTINUOUS
 10
22.76400
 20
39.34100
 30
 0
 11
22.86000
 21
39.34100
  0
LINE
  8
Gravur
 62
   7
 39
0.200
  6
CONTINUOUS
 10
22.86000
 20
39.34100
 30
 0
 11
22.87400
 21
39.34000
  0
LINE
  8
Gravur
 62
   7
 39
0.200
  6
CONTINUOUS
 10
22.87400
 20
39.34000
 30
 0
 11
23.12200
 21
39.33100
  0
LINE
  8
Gravur
 62
   7
 39
0.200
  6
CONTINUOUS
 10
23.12200
 20
39.33100
 30
 0
 11
23.37000
 21
39.35200
  0
LINE
  8
Gravur
 62
   7
 39
0.200
  6
CONTINUOUS
 10
23.37000
 20
39.35200
 30
 0
 11
23.61400
 21
39.40000
  0
LINE
  8
Gravur
 62
   7
 39
0.200
  6
CONTINUOUS
 10
22.81400
 20
39.86000
 30
 0
 11
22.92000
 21
39.86600
  0
LINE
  8
Gravur
 62
   7
 39
0.200
  6
CONTINUOUS
 10
22.92000
 20
39.86600
 30
 0
 11
23.02400
 21
39.88900
  0
LINE
  8
Gravur
 62
   7
 39
0.200
  6
CONTINUOUS
 10
23.02400
 20
39.88900
 30
 0
 11
23.12400
 21
39.92600
  0
LINE
  8
Gravur
 62
   7
 39
0.200
  6
CONTINUOUS
 10
23.12400
 20
39.92600
 30
 0
 11
23.21700
 21
39.97800
  0
LINE
  8
Gravur
 62
   7
 39
0.200
  6
CONTINUOUS
 10
23.21700
 20
39.97800
 30
 0
 11
23.30100
 21
40.04300
  0
LINE
  8
Gravur
 62
   7
 39
0.200
  6
CONTINUOUS
 10
23.30100
 20
40.04300
 30
 0
 11
23.37400
 21
40.12000
  0
LINE
  8
Gravur
 62
   7
 39
0.200
  6
CONTINUOUS
 10
23.37400
 20
40.12000
 30
 0
 11
23.37400
 21
40.12000
  0
LINE
  8
Gravur
 62
   7
 39
0.200
  6
CONTINUOUS
 10
23.37400
 20
40.12000
 30
 0
 11
23.47800
 21
40.26800
  0
LINE
  8
Gravur
 62
   7
 39
0.200
  6
CONTINUOUS
 10
23.47800
 20
40.26800
 30
 0
 11
23.56000
 21
40.42900
  0
LINE
  8
Gravur
 62
   7
 39
0.200
  6
CONTINUOUS
 10
23.56000
 20
40.42900
 30
 0
 11
23.61800
 21
40.59900
  0
LINE
  8
Gravur
 62
   7
 39
0.200
  6
CONTINUOUS
 10
23.61800
 20
40.59900
 30
 0
 11
23.65200
 21
40.77700
  0
LINE
  8
Gravur
 62
   7
 39
0.200
  6
CONTINUOUS
 10
23.65200
 20
40.77700
 30
 0
 11
23.66000
 21
40.95700
  0
LINE
  8
Gravur
 62
   7
 39
0.200
  6
CONTINUOUS
 10
23.66000
 20
40.95700
 30
 0
 11
23.64300
 21
41.13700
  0
LINE
  8
Gravur
 62
   7
 39
0.200
  6
CONTINUOUS
 10
23.64300
 20
41.13700
 30
 0
 11
23.60100
 21
41.31200
  0
LINE
  8
Gravur
 62
   7
 39
0.200
  6
CONTINUOUS
 10
23.60100
 20
41.31200
 30
 0
 11
23.53400
 21
41.48000
  0
LINE
  8
Gravur
 62
   7
 39
0.200
  6
CONTINUOUS
 10
23.53400
 20
41.48000
 30
 0
 11
23.53400
 21
41.48000
  0
LINE
  8
Gravur
 62
   7
 39
0.200
  6
CONTINUOUS
 10
23.53400
 20
41.48000
 30
 0
 11
23.48600
 21
41.56900
  0
LINE
  8
Gravur
 62
   7
 39
0.200
  6
CONTINUOUS
 10
23.48600
 20
41.56900
 30
 0
 11
23.42600
 21
41.65000
  0
LINE
  8
Gravur
 62
   7
 39
0.200
  6
CONTINUOUS
 10
23.42600
 20
41.65000
 30
 0
 11
23.35500
 21
41.72200
  0
LINE
  8
Gravur
 62
   7
 39
0.200
  6
CONTINUOUS
 10
23.35500
 20
41.72200
 30
 0
 11
23.27500
 21
41.78300
  0
LINE
  8
Gravur
 62
   7
 39
0.200
  6
CONTINUOUS
 10
23.27500
 20
41.78300
 30
 0
 11
23.18700
 21
41.83200
  0
LINE
  8
Gravur
 62
   7
 39
0.200
  6
CONTINUOUS
 10
23.18700
 20
41.83200
 30
 0
 11
23.09300
 21
41.86900
  0
LINE
  8
Gravur
 62
   7
 39
0.200
  6
CONTINUOUS
 10
23.09300
 20
41.86900
 30
 0
 11
22.99500
 21
41.89100
  0
LINE
  8
Gravur
 62
   7
 39
0.200
  6
CONTINUOUS
 10
22.99500
 20
41.89100
 30
 0
 11
22.89400
 21
41.90000
  0
LINE
  8
Gravur
 62
   7
 39
0.200
  6
CONTINUOUS
 10
22.89400
 20
41.90000
 30
 0
 11
22.89400
 21
41.90000
  0
LINE
  8
Gravur
 62
   7
 39
0.200
  6
CONTINUOUS
 10
22.89400
 20
41.90000
 30
 0
 11
22.80200
 21
41.89400
  0
LINE
  8
Gravur
 62
   7
 39
0.200
  6
CONTINUOUS
 10
22.80200
 20
41.89400
 30
 0
 11
22.71300
 21
41.87400
  0
LINE
  8
Gravur
 62
   7
 39
0.200
  6
CONTINUOUS
 10
22.71300
 20
41.87400
 30
 0
 11
22.62600
 21
41.84200
  0
LINE
  8
Gravur
 62
   7
 39
0.200
  6
CONTINUOUS
 10
22.62600
 20
41.84200
 30
 0
 11
22.54600
 21
41.79900
  0
LINE
  8
Gravur
 62
   7
 39
0.200
  6
CONTINUOUS
 10
22.54600
 20
41.79900
 30
 0
 11
22.47200
 21
41.74400
  0
LINE
  8
Gravur
 62
   7
 39
0.200
  6
CONTINUOUS
 10
22.47200
 20
41.74400
 30
 0
 11
22.40700
 21
41.67900
  0
LINE
  8
Gravur
 62
   7
 39
0.200
  6
CONTINUOUS
 10
22.40700
 20
41.67900
 30
 0
 11
22.35100
 21
41.60600
  0
LINE
  8
Gravur
 62
   7
 39
0.200
  6
CONTINUOUS
 10
22.35100
 20
41.60600
 30
 0
 11
22.30700
 21
41.52600
  0
LINE
  8
Gravur
 62
   7
 39
0.200
  6
CONTINUOUS
 10
22.30700
 20
41.52600
 30
 0
 11
22.27400
 21
41.44000
  0
LINE
  8
Gravur
 62
   7
 39
0.200
  6
CONTINUOUS
 10
22.27400
 20
41.44000
 30
 0
 11
22.27400
 21
41.44000
  0
LINE
  8
Gravur
 62
   7
 39
0.200
  6
CONTINUOUS
 10
22.27400
 20
41.44000
 30
 0
 11
22.03400
 21
40.32000
  0
LINE
  8
Gravur
 62
   7
 39
0.200
  6
CONTINUOUS
 10
22.03400
 20
40.32000
 30
 0
 11
22.00000
 21
40.23100
  0
LINE
  8
Gravur
 62
   7
 39
0.200
  6
CONTINUOUS
 10
22.00000
 20
40.23100
 30
 0
 11
21.95300
 21
40.14800
  0
LINE
  8
Gravur
 62
   7
 39
0.200
  6
CONTINUOUS
 10
21.95300
 20
40.14800
 30
 0
 11
21.89500
 21
40.07300
  0
LINE
  8
Gravur
 62
   7
 39
0.200
  6
CONTINUOUS
 10
21.89500
 20
40.07300
 30
 0
 11
21.82600
 21
40.00800
  0
LINE
  8
Gravur
 62
   7
 39
0.200
  6
CONTINUOUS
 10
21.82600
 20
40.00800
 30
 0
 11
21.74800
 21
39.95300
  0
LINE
  8
Gravur
 62
   7
 39
0.200
  6
CONTINUOUS
 10
21.74800
 20
39.95300
 30
 0
 11
21.66300
 21
39.91000
  0
LINE
  8
Gravur
 62
   7
 39
0.200
  6
CONTINUOUS
 10
21.66300
 20
39.91000
 30
 0
 11
21.57300
 21
39.88000
  0
LINE
  8
Gravur
 62
   7
 39
0.200
  6
CONTINUOUS
 10
21.57300
 20
39.88000
 30
 0
 11
21.47900
 21
39.86300
  0
LINE
  8
Gravur
 62
   7
 39
0.200
  6
CONTINUOUS
 10
21.47900
 20
39.86300
 30
 0
 11
21.41400
 21
39.86000
  0
LINE
  8
Gravur
 62
   7
 39
0.200
  6
CONTINUOUS
 10
21.41400
 20
39.86000
 30
 0
 11
21.31000
 21
39.86900
  0
LINE
  8
Gravur
 62
   7
 39
0.200
  6
CONTINUOUS
 10
21.31000
 20
39.86900
 30
 0
 11
21.20800
 21
39.89400
  0
LINE
  8
Gravur
 62
   7
 39
0.200
  6
CONTINUOUS
 10
21.20800
 20
39.89400
 30
 0
 11
21.11000
 21
39.93300
  0
LINE
  8
Gravur
 62
   7
 39
0.200
  6
CONTINUOUS
 10
21.11000
 20
39.93300
 30
 0
 11
21.02000
 21
39.98600
  0
LINE
  8
Gravur
 62
   7
 39
0.200
  6
CONTINUOUS
 10
21.02000
 20
39.98600
 30
 0
 11
20.93800
 21
40.05100
  0
LINE
  8
Gravur
 62
   7
 39
0.200
  6
CONTINUOUS
 10
20.93800
 20
40.05100
 30
 0
 11
20.86700
 21
40.12800
  0
LINE
  8
Gravur
 62
   7
 39
0.200
  6
CONTINUOUS
 10
20.86700
 20
40.12800
 30
 0
 11
20.80800
 21
40.21400
  0
LINE
  8
Gravur
 62
   7
 39
0.200
  6
CONTINUOUS
 10
20.80800
 20
40.21400
 30
 0
 11
20.77400
 21
40.28000
  0
LINE
  8
Gravur
 62
   7
 39
0.200
  6
CONTINUOUS
 10
20.77400
 20
40.28000
 30
 0
 11
20.70500
 21
40.45400
  0
LINE
  8
Gravur
 62
   7
 39
0.200
  6
CONTINUOUS
 10
20.70500
 20
40.45400
 30
 0
 11
20.66300
 21
40.63700
  0
LINE
  8
Gravur
 62
   7
 39
0.200
  6
CONTINUOUS
 10
20.66300
 20
40.63700
 30
 0
 11
20.64700
 21
40.82400
  0
LINE
  8
Gravur
 62
   7
 39
0.200
  6
CONTINUOUS
 10
20.64700
 20
40.82400
 30
 0
 11
20.65900
 21
41.01100
  0
LINE
  8
Gravur
 62
   7
 39
0.200
  6
CONTINUOUS
 10
20.65900
 20
41.01100
 30
 0
 11
20.69900
 21
41.19400
  0
LINE
  8
Gravur
 62
   7
 39
0.200
  6
CONTINUOUS
 10
20.69900
 20
41.19400
 30
 0
 11
20.76500
 21
41.36900
  0
LINE
  8
Gravur
 62
   7
 39
0.200
  6
CONTINUOUS
 10
20.76500
 20
41.36900
 30
 0
 11
20.85600
 21
41.53300
  0
LINE
  8
Gravur
 62
   7
 39
0.200
  6
CONTINUOUS
 10
20.85600
 20
41.53300
 30
 0
 11
20.93400
 21
41.64000
  0
LINE
  8
Gravur
 62
   7
 39
0.200
  6
CONTINUOUS
 10
20.93400
 20
41.64000
 30
 0
 11
21.00700
 21
41.71700
  0
LINE
  8
Gravur
 62
   7
 39
0.200
  6
CONTINUOUS
 10
21.00700
 20
41.71700
 30
 0
 11
21.09100
 21
41.78200
  0
LINE
  8
Gravur
 62
   7
 39
0.200
  6
CONTINUOUS
 10
21.09100
 20
41.78200
 30
 0
 11
21.18400
 21
41.83400
  0
LINE
  8
Gravur
 62
   7
 39
0.200
  6
CONTINUOUS
 10
21.18400
 20
41.83400
 30
 0
 11
21.28300
 21
41.87100
  0
LINE
  8
Gravur
 62
   7
 39
0.200
  6
CONTINUOUS
 10
21.28300
 20
41.87100
 30
 0
 11
21.38700
 21
41.89400
  0
LINE
  8
Gravur
 62
   7
 39
0.200
  6
CONTINUOUS
 10
21.38700
 20
41.89400
 30
 0
 11
21.49300
 21
41.90000
  0
LINE
  8
Gravur
 62
   7
 39
0.200
  6
CONTINUOUS
 10
21.49300
 20
41.90000
 30
 0
 11
21.49400
 21
41.90000
  0
LINE
  8
Gravur
 62
   7
 39
0.200
  6
CONTINUOUS
 10
21.53400
 20
42.36000
 30
 0
 11
21.41700
 21
42.36800
  0
LINE
  8
Gravur
 62
   7
 39
0.200
  6
CONTINUOUS
 10
21.41700
 20
42.36800
 30
 0
 11
21.30300
 21
42.39300
  0
LINE
  8
Gravur
 62
   7
 39
0.200
  6
CONTINUOUS
 10
21.30300
 20
42.39300
 30
 0
 11
21.19400
 21
42.43400
  0
LINE
  8
Gravur
 62
   7
 39
0.200
  6
CONTINUOUS
 10
21.19400
 20
42.43400
 30
 0
 11
21.09200
 21
42.49100
  0
LINE
  8
Gravur
 62
   7
 39
0.200
  6
CONTINUOUS
 10
21.09200
 20
42.49100
 30
 0
 11
20.99900
 21
42.56300
  0
LINE
  8
Gravur
 62
   7
 39
0.200
  6
CONTINUOUS
 10
20.99900
 20
42.56300
 30
 0
 11
20.91800
 21
42.64700
  0
LINE
  8
Gravur
 62
   7
 39
0.200
  6
CONTINUOUS
 10
20.91800
 20
42.64700
 30
 0
 11
20.85000
 21
42.74200
  0
LINE
  8
Gravur
 62
   7
 39
0.200
  6
CONTINUOUS
 10
20.85000
 20
42.74200
 30
 0
 11
20.79700
 21
42.84600
  0
LINE
  8
Gravur
 62
   7
 39
0.200
  6
CONTINUOUS
 10
20.79700
 20
42.84600
 30
 0
 11
20.75900
 21
42.95700
  0
LINE
  8
Gravur
 62
   7
 39
0.200
  6
CONTINUOUS
 10
20.75900
 20
42.95700
 30
 0
 11
20.73800
 21
43.07100
  0
LINE
  8
Gravur
 62
   7
 39
0.200
  6
CONTINUOUS
 10
20.73800
 20
43.07100
 30
 0
 11
20.73400
 21
43.16000
  0
LINE
  8
Gravur
 62
   7
 39
0.200
  6
CONTINUOUS
 10
20.73400
 20
43.16000
 30
 0
 11
20.73400
 21
43.24000
  0
LINE
  8
Gravur
 62
   7
 39
0.200
  6
CONTINUOUS
 10
20.73400
 20
43.24000
 30
 0
 11
20.74200
 21
43.35800
  0
LINE
  8
Gravur
 62
   7
 39
0.200
  6
CONTINUOUS
 10
20.74200
 20
43.35800
 30
 0
 11
20.76700
 21
43.47400
  0
LINE
  8
Gravur
 62
   7
 39
0.200
  6
CONTINUOUS
 10
20.76700
 20
43.47400
 30
 0
 11
20.80800
 21
43.58500
  0
LINE
  8
Gravur
 62
   7
 39
0.200
  6
CONTINUOUS
 10
20.80800
 20
43.58500
 30
 0
 11
20.86600
 21
43.68800
  0
LINE
  8
Gravur
 62
   7
 39
0.200
  6
CONTINUOUS
 10
20.86600
 20
43.68800
 30
 0
 11
20.93800
 21
43.78200
  0
LINE
  8
Gravur
 62
   7
 39
0.200
  6
CONTINUOUS
 10
20.93800
 20
43.78200
 30
 0
 11
21.02200
 21
43.86500
  0
LINE
  8
Gravur
 62
   7
 39
0.200
  6
CONTINUOUS
 10
21.02200
 20
43.86500
 30
 0
 11
21.11900
 21
43.93400
  0
LINE
  8
Gravur
 62
   7
 39
0.200
  6
CONTINUOUS
 10
21.11900
 20
43.93400
 30
 0
 11
21.22400
 21
43.98900
  0
LINE
  8
Gravur
 62
   7
 39
0.200
  6
CONTINUOUS
 10
21.22400
 20
43.98900
 30
 0
 11
21.33600
 21
44.02700
  0
LINE
  8
Gravur
 62
   7
 39
0.200
  6
CONTINUOUS
 10
21.33600
 20
44.02700
 30
 0
 11
21.45200
 21
44.04900
  0
LINE
  8
Gravur
 62
   7
 39
0.200
  6
CONTINUOUS
 10
21.45200
 20
44.04900
 30
 0
 11
21.57000
 21
44.05300
  0
LINE
  8
Gravur
 62
   7
 39
0.200
  6
CONTINUOUS
 10
21.57000
 20
44.05300
 30
 0
 11
21.68800
 21
44.04000
  0
LINE
  8
Gravur
 62
   7
 39
0.200
  6
CONTINUOUS
 10
21.68800
 20
44.04000
 30
 0
 11
21.80300
 21
44.01000
  0
LINE
  8
Gravur
 62
   7
 39
0.200
  6
CONTINUOUS
 10
21.80300
 20
44.01000
 30
 0
 11
21.91200
 21
43.96300
  0
LINE
  8
Gravur
 62
   7
 39
0.200
  6
CONTINUOUS
 10
21.91200
 20
43.96300
 30
 0
 11
22.01200
 21
43.90100
  0
LINE
  8
Gravur
 62
   7
 39
0.200
  6
CONTINUOUS
 10
22.01200
 20
43.90100
 30
 0
 11
22.10300
 21
43.82500
  0
LINE
  8
Gravur
 62
   7
 39
0.200
  6
CONTINUOUS
 10
22.10300
 20
43.82500
 30
 0
 11
22.18200
 21
43.73700
  0
LINE
  8
Gravur
 62
   7
 39
0.200
  6
CONTINUOUS
 10
22.18200
 20
43.73700
 30
 0
 11
22.23400
 21
43.66000
  0
LINE
  8
Gravur
 62
   7
 39
0.200
  6
CONTINUOUS
 10
22.23400
 20
43.66000
 30
 0
 11
22.63400
 21
42.94000
  0
LINE
  8
Gravur
 62
   7
 39
0.200
  6
CONTINUOUS
 10
22.63400
 20
42.94000
 30
 0
 11
22.71300
 21
42.81200
  0
LINE
  8
Gravur
 62
   7
 39
0.200
  6
CONTINUOUS
 10
22.71300
 20
42.81200
 30
 0
 11
22.80800
 21
42.69500
  0
LINE
  8
Gravur
 62
   7
 39
0.200
  6
CONTINUOUS
 10
22.80800
 20
42.69500
 30
 0
 11
22.91800
 21
42.59200
  0
LINE
  8
Gravur
 62
   7
 39
0.200
  6
CONTINUOUS
 10
22.91800
 20
42.59200
 30
 0
 11
23.04100
 21
42.50500
  0
LINE
  8
Gravur
 62
   7
 39
0.200
  6
CONTINUOUS
 10
23.04100
 20
42.50500
 30
 0
 11
23.17500
 21
42.43500
  0
LINE
  8
Gravur
 62
   7
 39
0.200
  6
CONTINUOUS
 10
23.17500
 20
42.43500
 30
 0
 11
23.31700
 21
42.38400
  0
LINE
  8
Gravur
 62
   7
 39
0.200
  6
CONTINUOUS
 10
23.31700
 20
42.38400
 30
 0
 11
23.46400
 21
42.35200
  0
LINE
  8
Gravur
 62
   7
 39
0.200
  6
CONTINUOUS
 10
23.46400
 20
42.35200
 30
 0
 11
23.61400
 21
42.34000
  0
LINE
  8
Gravur
 62
   7
 39
0.200
  6
CONTINUOUS
 10
23.61400
 20
42.34000
 30
 0
 11
23.61400
 21
42.34000
  0
LINE
  8
Gravur
 62
   7
 39
0.200
  6
CONTINUOUS
 10
23.61400
 20
42.34000
 30
 0
 11
23.61400
 21
44.10000
  0
LINE
  8
Gravur
 62
   7
 39
0.200
  6
CONTINUOUS
 10
21.45400
 20
44.62000
 30
 0
 11
21.34900
 21
44.62700
  0
LINE
  8
Gravur
 62
   7
 39
0.200
  6
CONTINUOUS
 10
21.34900
 20
44.62700
 30
 0
 11
21.24600
 21
44.65000
  0
LINE
  8
Gravur
 62
   7
 39
0.200
  6
CONTINUOUS
 10
21.24600
 20
44.65000
 30
 0
 11
21.14800
 21
44.68700
  0
LINE
  8
Gravur
 62
   7
 39
0.200
  6
CONTINUOUS
 10
21.14800
 20
44.68700
 30
 0
 11
21.05600
 21
44.73800
  0
LINE
  8
Gravur
 62
   7
 39
0.200
  6
CONTINUOUS
 10
21.05600
 20
44.73800
 30
 0
 11
20.97300
 21
44.80200
  0
LINE
  8
Gravur
 62
   7
 39
0.200
  6
CONTINUOUS
 10
20.97300
 20
44.80200
 30
 0
 11
20.90000
 21
44.87800
  0
LINE
  8
Gravur
 62
   7
 39
0.200
  6
CONTINUOUS
 10
20.90000
 20
44.87800
 30
 0
 11
20.83900
 21
44.96300
  0
LINE
  8
Gravur
 62
   7
 39
0.200
  6
CONTINUOUS
 10
20.83900
 20
44.96300
 30
 0
 11
20.79100
 21
45.05600
  0
LINE
  8
Gravur
 62
   7
 39
0.200
  6
CONTINUOUS
 10
20.79100
 20
45.05600
 30
 0
 11
20.75700
 21
45.15600
  0
LINE
  8
Gravur
 62
   7
 39
0.200
  6
CONTINUOUS
 10
20.75700
 20
45.15600
 30
 0
 11
20.73800
 21
45.25900
  0
LINE
  8
Gravur
 62
   7
 39
0.200
  6
CONTINUOUS
 10
20.73800
 20
45.25900
 30
 0
 11
20.73400
 21
45.34000
  0
LINE
  8
Gravur
 62
   7
 39
0.200
  6
CONTINUOUS
 10
20.73400
 20
45.34000
 30
 0
 11
20.73400
 21
45.42000
  0
LINE
  8
Gravur
 62
   7
 39
0.200
  6
CONTINUOUS
 10
20.73400
 20
45.42000
 30
 0
 11
20.74100
 21
45.52500
  0
LINE
  8
Gravur
 62
   7
 39
0.200
  6
CONTINUOUS
 10
20.74100
 20
45.52500
 30
 0
 11
20.76400
 21
45.62800
  0
LINE
  8
Gravur
 62
   7
 39
0.200
  6
CONTINUOUS
 10
20.76400
 20
45.62800
 30
 0
 11
20.80100
 21
45.72600
  0
LINE
  8
Gravur
 62
   7
 39
0.200
  6
CONTINUOUS
 10
20.80100
 20
45.72600
 30
 0
 11
20.85200
 21
45.81800
  0
LINE
  8
Gravur
 62
   7
 39
0.200
  6
CONTINUOUS
 10
20.85200
 20
45.81800
 30
 0
 11
20.91600
 21
45.90100
  0
LINE
  8
Gravur
 62
   7
 39
0.200
  6
CONTINUOUS
 10
20.91600
 20
45.90100
 30
 0
 11
20.99200
 21
45.97400
  0
LINE
  8
Gravur
 62
   7
 39
0.200
  6
CONTINUOUS
 10
20.99200
 20
45.97400
 30
 0
 11
21.07700
 21
46.03500
  0
LINE
  8
Gravur
 62
   7
 39
0.200
  6
CONTINUOUS
 10
21.07700
 20
46.03500
 30
 0
 11
21.17000
 21
46.08300
  0
LINE
  8
Gravur
 62
   7
 39
0.200
  6
CONTINUOUS
 10
21.17000
 20
46.08300
 30
 0
 11
21.27000
 21
46.11700
  0
LINE
  8
Gravur
 62
   7
 39
0.200
  6
CONTINUOUS
 10
21.27000
 20
46.11700
 30
 0
 11
21.37300
 21
46.13600
  0
LINE
  8
Gravur
 62
   7
 39
0.200
  6
CONTINUOUS
 10
21.37300
 20
46.13600
 30
 0
 11
21.45400
 21
46.14000
  0
LINE
  8
Gravur
 62
   7
 39
0.200
  6
CONTINUOUS
 10
21.45400
 20
46.14000
 30
 0
 11
21.54700
 21
46.13400
  0
LINE
  8
Gravur
 62
   7
 39
0.200
  6
CONTINUOUS
 10
21.54700
 20
46.13400
 30
 0
 11
21.63900
 21
46.11400
  0
LINE
  8
Gravur
 62
   7
 39
0.200
  6
CONTINUOUS
 10
21.63900
 20
46.11400
 30
 0
 11
21.72600
 21
46.08000
  0
LINE
  8
Gravur
 62
   7
 39
0.200
  6
CONTINUOUS
 10
21.72600
 20
46.08000
 30
 0
 11
21.80800
 21
46.03500
  0
LINE
  8
Gravur
 62
   7
 39
0.200
  6
CONTINUOUS
 10
21.80800
 20
46.03500
 30
 0
 11
21.88200
 21
45.97800
  0
LINE
  8
Gravur
 62
   7
 39
0.200
  6
CONTINUOUS
 10
21.88200
 20
45.97800
 30
 0
 11
21.94700
 21
45.91000
  0
LINE
  8
Gravur
 62
   7
 39
0.200
  6
CONTINUOUS
 10
21.94700
 20
45.91000
 30
 0
 11
22.00100
 21
45.83400
  0
LINE
  8
Gravur
 62
   7
 39
0.200
  6
CONTINUOUS
 10
22.00100
 20
45.83400
 30
 0
 11
22.04400
 21
45.75100
  0
LINE
  8
Gravur
 62
   7
 39
0.200
  6
CONTINUOUS
 10
22.04400
 20
45.75100
 30
 0
 11
22.07400
 21
45.66200
  0
LINE
  8
Gravur
 62
   7
 39
0.200
  6
CONTINUOUS
 10
22.07400
 20
45.66200
 30
 0
 11
22.09000
 21
45.57000
  0
LINE
  8
Gravur
 62
   7
 39
0.200
  6
CONTINUOUS
 10
22.09000
 20
45.57000
 30
 0
 11
22.09400
 21
45.50000
  0
LINE
  8
Gravur
 62
   7
 39
0.200
  6
CONTINUOUS
 10
22.09400
 20
45.50000
 30
 0
 11
22.09400
 21
45.26000
  0
LINE
  8
Gravur
 62
   7
 39
0.200
  6
CONTINUOUS
 10
22.09400
 20
45.26000
 30
 0
 11
22.09400
 21
45.50000
  0
LINE
  8
Gravur
 62
   7
 39
0.200
  6
CONTINUOUS
 10
22.09400
 20
45.50000
 30
 0
 11
22.10100
 21
45.60500
  0
LINE
  8
Gravur
 62
   7
 39
0.200
  6
CONTINUOUS
 10
22.10100
 20
45.60500
 30
 0
 11
22.12400
 21
45.70800
  0
LINE
  8
Gravur
 62
   7
 39
0.200
  6
CONTINUOUS
 10
22.12400
 20
45.70800
 30
 0
 11
22.16100
 21
45.80600
  0
LINE
  8
Gravur
 62
   7
 39
0.200
  6
CONTINUOUS
 10
22.16100
 20
45.80600
 30
 0
 11
22.21200
 21
45.89800
  0
LINE
  8
Gravur
 62
   7
 39
0.200
  6
CONTINUOUS
 10
22.21200
 20
45.89800
 30
 0
 11
22.27600
 21
45.98100
  0
LINE
  8
Gravur
 62
   7
 39
0.200
  6
CONTINUOUS
 10
22.27600
 20
45.98100
 30
 0
 11
22.35200
 21
46.05400
  0
LINE
  8
Gravur
 62
   7
 39
0.200
  6
CONTINUOUS
 10
22.35200
 20
46.05400
 30
 0
 11
22.43700
 21
46.11500
  0
LINE
  8
Gravur
 62
   7
 39
0.200
  6
CONTINUOUS
 10
22.43700
 20
46.11500
 30
 0
 11
22.53000
 21
46.16300
  0
LINE
  8
Gravur
 62
   7
 39
0.200
  6
CONTINUOUS
 10
22.53000
 20
46.16300
 30
 0
 11
22.63000
 21
46.19700
  0
LINE
  8
Gravur
 62
   7
 39
0.200
  6
CONTINUOUS
 10
22.63000
 20
46.19700
 30
 0
 11
22.73300
 21
46.21600
  0
LINE
  8
Gravur
 62
   7
 39
0.200
  6
CONTINUOUS
 10
22.73300
 20
46.21600
 30
 0
 11
22.81400
 21
46.22000
  0
LINE
  8
Gravur
 62
   7
 39
0.200
  6
CONTINUOUS
 10
22.81400
 20
46.22000
 30
 0
 11
22.93100
 21
46.21200
  0
LINE
  8
Gravur
 62
   7
 39
0.200
  6
CONTINUOUS
 10
22.93100
 20
46.21200
 30
 0
 11
23.04500
 21
46.18700
  0
LINE
  8
Gravur
 62
   7
 39
0.200
  6
CONTINUOUS
 10
23.04500
 20
46.18700
 30
 0
 11
23.15400
 21
46.14600
  0
LINE
  8
Gravur
 62
   7
 39
0.200
  6
CONTINUOUS
 10
23.15400
 20
46.14600
 30
 0
 11
23.25600
 21
46.08900
  0
LINE
  8
Gravur
 62
   7
 39
0.200
  6
CONTINUOUS
 10
23.25600
 20
46.08900
 30
 0
 11
23.34900
 21
46.01700
  0
LINE
  8
Gravur
 62
   7
 39
0.200
  6
CONTINUOUS
 10
23.34900
 20
46.01700
 30
 0
 11
23.43000
 21
45.93300
  0
LINE
  8
Gravur
 62
   7
 39
0.200
  6
CONTINUOUS
 10
23.43000
 20
45.93300
 30
 0
 11
23.49800
 21
45.83800
  0
LINE
  8
Gravur
 62
   7
 39
0.200
  6
CONTINUOUS
 10
23.49800
 20
45.83800
 30
 0
 11
23.55100
 21
45.73400
  0
LINE
  8
Gravur
 62
   7
 39
0.200
  6
CONTINUOUS
 10
23.55100
 20
45.73400
 30
 0
 11
23.58900
 21
45.62300
  0
LINE
  8
Gravur
 62
   7
 39
0.200
  6
CONTINUOUS
 10
23.58900
 20
45.62300
 30
 0
 11
23.61000
 21
45.50900
  0
LINE
  8
Gravur
 62
   7
 39
0.200
  6
CONTINUOUS
 10
23.61000
 20
45.50900
 30
 0
 11
23.61400
 21
45.42000
  0
LINE
  8
Gravur
 62
   7
 39
0.200
  6
CONTINUOUS
 10
23.61400
 20
45.42000
 30
 0
 11
23.61400
 21
45.34000
  0
LINE
  8
Gravur
 62
   7
 39
0.200
  6
CONTINUOUS
 10
23.61400
 20
45.34000
 30
 0
 11
23.60600
 21
45.22400
  0
LINE
  8
Gravur
 62
   7
 39
0.200
  6
CONTINUOUS
 10
23.60600
 20
45.22400
 30
 0
 11
23.58100
 21
45.11000
  0
LINE
  8
Gravur
 62
   7
 39
0.200
  6
CONTINUOUS
 10
23.58100
 20
45.11000
 30
 0
 11
23.54000
 21
45.00100
  0
LINE
  8
Gravur
 62
   7
 39
0.200
  6
CONTINUOUS
 10
23.54000
 20
45.00100
 30
 0
 11
23.48300
 21
44.89900
  0
LINE
  8
Gravur
 62
   7
 39
0.200
  6
CONTINUOUS
 10
23.48300
 20
44.89900
 30
 0
 11
23.41300
 21
44.80600
  0
LINE
  8
Gravur
 62
   7
 39
0.200
  6
CONTINUOUS
 10
23.41300
 20
44.80600
 30
 0
 11
23.32900
 21
44.72400
  0
LINE
  8
Gravur
 62
   7
 39
0.200
  6
CONTINUOUS
 10
23.32900
 20
44.72400
 30
 0
 11
23.23500
 21
44.65600
  0
LINE
  8
Gravur
 62
   7
 39
0.200
  6
CONTINUOUS
 10
23.23500
 20
44.65600
 30
 0
 11
23.13100
 21
44.60200
  0
LINE
  8
Gravur
 62
   7
 39
0.200
  6
CONTINUOUS
 10
23.13100
 20
44.60200
 30
 0
 11
23.02100
 21
44.56300
  0
LINE
  8
Gravur
 62
   7
 39
0.200
  6
CONTINUOUS
 10
23.02100
 20
44.56300
 30
 0
 11
22.90700
 21
44.54100
  0
LINE
  8
Gravur
 62
   7
 39
0.200
  6
CONTINUOUS
 10
22.90700
 20
44.54100
 30
 0
 11
22.89400
 21
44.54000
  0
LINE
  8
Gravur
 62
   7
 39
0.200
  6
CONTINUOUS
 10
21.53400
 20
46.68000
 30
 0
 11
21.41700
 21
46.68800
  0
LINE
  8
Gravur
 62
   7
 39
0.200
  6
CONTINUOUS
 10
21.41700
 20
46.68800
 30
 0
 11
21.30300
 21
46.71300
  0
LINE
  8
Gravur
 62
   7
 39
0.200
  6
CONTINUOUS
 10
21.30300
 20
46.71300
 30
 0
 11
21.19400
 21
46.75400
  0
LINE
  8
Gravur
 62
   7
 39
0.200
  6
CONTINUOUS
 10
21.19400
 20
46.75400
 30
 0
 11
21.09200
 21
46.81100
  0
LINE
  8
Gravur
 62
   7
 39
0.200
  6
CONTINUOUS
 10
21.09200
 20
46.81100
 30
 0
 11
20.99900
 21
46.88300
  0
LINE
  8
Gravur
 62
   7
 39
0.200
  6
CONTINUOUS
 10
20.99900
 20
46.88300
 30
 0
 11
20.91800
 21
46.96700
  0
LINE
  8
Gravur
 62
   7
 39
0.200
  6
CONTINUOUS
 10
20.91800
 20
46.96700
 30
 0
 11
20.85000
 21
47.06200
  0
LINE
  8
Gravur
 62
   7
 39
0.200
  6
CONTINUOUS
 10
20.85000
 20
47.06200
 30
 0
 11
20.79700
 21
47.16600
  0
LINE
  8
Gravur
 62
   7
 39
0.200
  6
CONTINUOUS
 10
20.79700
 20
47.16600
 30
 0
 11
20.75900
 21
47.27700
  0
LINE
  8
Gravur
 62
   7
 39
0.200
  6
CONTINUOUS
 10
20.75900
 20
47.27700
 30
 0
 11
20.73800
 21
47.39100
  0
LINE
  8
Gravur
 62
   7
 39
0.200
  6
CONTINUOUS
 10
20.73800
 20
47.39100
 30
 0
 11
20.73400
 21
47.48000
  0
LINE
  8
Gravur
 62
   7
 39
0.200
  6
CONTINUOUS
 10
20.73400
 20
47.48000
 30
 0
 11
20.73400
 21
47.56000
  0
LINE
  8
Gravur
 62
   7
 39
0.200
  6
CONTINUOUS
 10
20.73400
 20
47.56000
 30
 0
 11
20.74200
 21
47.67800
  0
LINE
  8
Gravur
 62
   7
 39
0.200
  6
CONTINUOUS
 10
20.74200
 20
47.67800
 30
 0
 11
20.76700
 21
47.79400
  0
LINE
  8
Gravur
 62
   7
 39
0.200
  6
CONTINUOUS
 10
20.76700
 20
47.79400
 30
 0
 11
20.80800
 21
47.90500
  0
LINE
  8
Gravur
 62
   7
 39
0.200
  6
CONTINUOUS
 10
20.80800
 20
47.90500
 30
 0
 11
20.86600
 21
48.00800
  0
LINE
  8
Gravur
 62
   7
 39
0.200
  6
CONTINUOUS
 10
20.86600
 20
48.00800
 30
 0
 11
20.93800
 21
48.10200
  0
LINE
  8
Gravur
 62
   7
 39
0.200
  6
CONTINUOUS
 10
20.93800
 20
48.10200
 30
 0
 11
21.02200
 21
48.18500
  0
LINE
  8
Gravur
 62
   7
 39
0.200
  6
CONTINUOUS
 10
21.02200
 20
48.18500
 30
 0
 11
21.11900
 21
48.25400
  0
LINE
  8
Gravur
 62
   7
 39
0.200
  6
CONTINUOUS
 10
21.11900
 20
48.25400
 30
 0
 11
21.22400
 21
48.30900
  0
LINE
  8
Gravur
 62
   7
 39
0.200
  6
CONTINUOUS
 10
21.22400
 20
48.30900
 30
 0
 11
21.33600
 21
48.34700
  0
LINE
  8
Gravur
 62
   7
 39
0.200
  6
CONTINUOUS
 10
21.33600
 20
48.34700
 30
 0
 11
21.45200
 21
48.36900
  0
LINE
  8
Gravur
 62
   7
 39
0.200
  6
CONTINUOUS
 10
21.45200
 20
48.36900
 30
 0
 11
21.57000
 21
48.37300
  0
LINE
  8
Gravur
 62
   7
 39
0.200
  6
CONTINUOUS
 10
21.57000
 20
48.37300
 30
 0
 11
21.68800
 21
48.36000
  0
LINE
  8
Gravur
 62
   7
 39
0.200
  6
CONTINUOUS
 10
21.68800
 20
48.36000
 30
 0
 11
21.80300
 21
48.33000
  0
LINE
  8
Gravur
 62
   7
 39
0.200
  6
CONTINUOUS
 10
21.80300
 20
48.33000
 30
 0
 11
21.91200
 21
48.28300
  0
LINE
  8
Gravur
 62
   7
 39
0.200
  6
CONTINUOUS
 10
21.91200
 20
48.28300
 30
 0
 11
22.01200
 21
48.22100
  0
LINE
  8
Gravur
 62
   7
 39
0.200
  6
CONTINUOUS
 10
22.01200
 20
48.22100
 30
 0
 11
22.10300
 21
48.14500
  0
LINE
  8
Gravur
 62
   7
 39
0.200
  6
CONTINUOUS
 10
22.10300
 20
48.14500
 30
 0
 11
22.18200
 21
48.05700
  0
LINE
  8
Gravur
 62
   7
 39
0.200
  6
CONTINUOUS
 10
22.18200
 20
48.05700
 30
 0
 11
22.23400
 21
47.98000
  0
LINE
  8
Gravur
 62
   7
 39
0.200
  6
CONTINUOUS
 10
22.23400
 20
47.98000
 30
 0
 11
22.63400
 21
47.26000
  0
LINE
  8
Gravur
 62
   7
 39
0.200
  6
CONTINUOUS
 10
22.63400
 20
47.26000
 30
 0
 11
22.71300
 21
47.13200
  0
LINE
  8
Gravur
 62
   7
 39
0.200
  6
CONTINUOUS
 10
22.71300
 20
47.13200
 30
 0
 11
22.80800
 21
47.01500
  0
LINE
  8
Gravur
 62
   7
 39
0.200
  6
CONTINUOUS
 10
22.80800
 20
47.01500
 30
 0
 11
22.91800
 21
46.91200
  0
LINE
  8
Gravur
 62
   7
 39
0.200
  6
CONTINUOUS
 10
22.91800
 20
46.91200
 30
 0
 11
23.04100
 21
46.82500
  0
LINE
  8
Gravur
 62
   7
 39
0.200
  6
CONTINUOUS
 10
23.04100
 20
46.82500
 30
 0
 11
23.17500
 21
46.75500
  0
LINE
  8
Gravur
 62
   7
 39
0.200
  6
CONTINUOUS
 10
23.17500
 20
46.75500
 30
 0
 11
23.31700
 21
46.70400
  0
LINE
  8
Gravur
 62
   7
 39
0.200
  6
CONTINUOUS
 10
23.31700
 20
46.70400
 30
 0
 11
23.46400
 21
46.67200
  0
LINE
  8
Gravur
 62
   7
 39
0.200
  6
CONTINUOUS
 10
23.46400
 20
46.67200
 30
 0
 11
23.61400
 21
46.66000
  0
LINE
  8
Gravur
 62
   7
 39
0.200
  6
CONTINUOUS
 10
23.61400
 20
46.66000
 30
 0
 11
23.61400
 21
46.66000
  0
LINE
  8
Gravur
 62
   7
 39
0.200
  6
CONTINUOUS
 10
23.61400
 20
46.66000
 30
 0
 11
23.61400
 21
48.42000
  0
ARC
  8
Kontur
 62
   7
 39
0.200
  6
CONTINUOUS
 10
13.69100
 20
50.21096
 30
 0
 40
2.50000
 50
0.00093
 51
99.99720
  0
LINE
  8
Kontur
 62
   7
 39
0.200
  6
CONTINUOUS
 10
13.25700
 20
52.67300
 30
 0
 11
6.75700
 21
51.52600
  0
ARC
  8
Kontur
 62
   7
 39
0.200
  6
CONTINUOUS
 10
7.19100
 20
49.06396
 30
 0
 40
2.50000
 50
99.99720
 51
179.99907
  0
LINE
  8
Kontur
 62
   7
 39
0.200
  6
CONTINUOUS
 10
4.69100
 20
49.06400
 30
 0
 11
4.69100
 21
36.35600
  0
ARC
  8
Kontur
 62
   7
 39
0.200
  6
CONTINUOUS
 10
7.19100
 20
36.35604
 30
 0
 40
2.50000
 50
-179.99907
 51
-99.99720
  0
LINE
  8
Kontur
 62
   7
 39
0.200
  6
CONTINUOUS
 10
6.75700
 20
33.89400
 30
 0
 11
13.25700
 21
32.74700
  0
ARC
  8
Kontur
 62
   7
 39
0.200
  6
CONTINUOUS
 10
13.69100
 20
35.20904
 30
 0
 40
2.50000
 50
-99.99720
 51
-0.00093
  0
LINE
  8
Kontur
 62
   7
 39
0.200
  6
CONTINUOUS
 10
16.19100
 20
35.20900
 30
 0
 11
16.19100
 21
50.21100
  0
CIRCLE
  8
Kontur
 62
   7
 39
0.200
  6
CONTINUOUS
 10
10.44100
 20
30.21000
 30
 0
 40
1.60000
  0
CIRCLE
  8
Kontur
 62
   7
 39
0.200
  6
CONTINUOUS
 10
10.44100
 20
55.21000
 30
 0
 40
1.60000
  0
ARC
  8
Kontur
 62
   7
 39
0.200
  6
CONTINUOUS
 10
17.60000
 20
81.08000
 30
 0
 40
1.00000
 50
360.00000
 51
90.00000
  0
LINE
  8
Kontur
 62
   7
 39
0.200
  6
CONTINUOUS
 10
18.60000
 20
81.08000
 30
 0
 11
18.60000
 21
66.58000
  0
ARC
  8
Kontur
 62
   7
 39
0.200
  6
CONTINUOUS
 10
17.60000
 20
66.58000
 30
 0
 40
1.00000
 50
270.00000
 51
0.00000
  0
LINE
  8
Kontur
 62
   7
 39
0.200
  6
CONTINUOUS
 10
17.60000
 20
65.58000
 30
 0
 11
5.40000
 21
65.58000
  0
ARC
  8
Kontur
 62
   7
 39
0.200
  6
CONTINUOUS
 10
5.40000
 20
66.58000
 30
 0
 40
1.00000
 50
180.00000
 51
-90.00000
  0
LINE
  8
Kontur
 62
   7
 39
0.200
  6
CONTINUOUS
 10
4.40000
 20
66.58000
 30
 0
 11
4.40000
 21
81.08000
  0
ARC
  8
Kontur
 62
   7
 39
0.200
  6
CONTINUOUS
 10
5.40000
 20
81.08000
 30
 0
 40
1.00000
 50
450.00000
 51
180.00000
  0
LINE
  8
Kontur
 62
   7
 39
0.200
  6
CONTINUOUS
 10
5.40000
 20
82.08000
 30
 0
 11
17.60000
 21
82.08000
  0
ARC
  8
Kontur
 62
   7
 39
0.200
  6
CONTINUOUS
 10
13.65000
 20
97.80000
 30
 0
 40
1.50000
 50
360.00000
 51
90.00000
  0
LINE
  8
Kontur
 62
   7
 39
0.200
  6
CONTINUOUS
 10
15.15000
 20
97.80000
 30
 0
 11
15.15000
 21
88.60000
  0
ARC
  8
Kontur
 62
   7
 39
0.200
  6
CONTINUOUS
 10
13.65000
 20
88.60000
 30
 0
 40
1.50000
 50
270.00000
 51
0.00000
  0
LINE
  8
Kontur
 62
   7
 39
0.200
  6
CONTINUOUS
 10
13.65000
 20
87.10000
 30
 0
 11
5.85000
 21
87.10000
  0
ARC
  8
Kontur
 62
   7
 39
0.200
  6
CONTINUOUS
 10
5.85000
 20
88.60000
 30
 0
 40
1.50000
 50
180.00000
 51
-90.00000
  0
LINE
  8
Kontur
 62
   7
 39
0.200
  6
CONTINUOUS
 10
4.35000
 20
88.60000
 30
 0
 11
4.35000
 21
97.80000
  0
ARC
  8
Kontur
 62
   7
 39
0.200
  6
CONTINUOUS
 10
5.85000
 20
97.80000
 30
 0
 40
1.50000
 50
450.00000
 51
180.00000
  0
LINE
  8
Kontur
 62
   7
 39
0.200
  6
CONTINUOUS
 10
5.85000
 20
99.30000
 30
 0
 11
13.65000
 21
99.30000
  0
ARC
  8
Kontur
 62
   7
 39
0.200
  6
CONTINUOUS
 10
35.49904
 20
22.25000
 30
 0
 40
2.50000
 50
90.00093
 51
189.99720
  0
LINE
  8
Kontur
 62
   7
 39
0.200
  6
CONTINUOUS
 10
33.03700
 20
21.81600
 30
 0
 11
34.18400
 21
15.31600
  0
ARC
  8
Kontur
 62
   7
 39
0.200
  6
CONTINUOUS
 10
36.64604
 20
15.75000
 30
 0
 40
2.50000
 50
-170.00280
 51
-90.00093
  0
LINE
  8
Kontur
 62
   7
 39
0.200
  6
CONTINUOUS
 10
36.64600
 20
13.25000
 30
 0
 11
49.35400
 21
13.25000
  0
ARC
  8
Kontur
 62
   7
 39
0.200
  6
CONTINUOUS
 10
49.35396
 20
15.75000
 30
 0
 40
2.50000
 50
-89.99907
 51
-9.99720
  0
LINE
  8
Kontur
 62
   7
 39
0.200
  6
CONTINUOUS
 10
51.81600
 20
15.31600
 30
 0
 11
52.96300
 21
21.81600
  0
ARC
  8
Kontur
 62
   7
 39
0.200
  6
CONTINUOUS
 10
50.50096
 20
22.25000
 30
 0
 40
2.50000
 50
-9.99720
 51
89.99907
  0
LINE
  8
Kontur
 62
   7
 39
0.200
  6
CONTINUOUS
 10
50.50100
 20
24.75000
 30
 0
 11
35.49900
 21
24.75000
  0
CIRCLE
  8
Kontur
 62
   7
 39
0.200
  6
CONTINUOUS
 10
55.50000
 20
19.00000
 30
 0
 40
1.60000
  0
CIRCLE
  8
Kontur
 62
   7
 39
0.200
  6
CONTINUOUS
 10
30.50000
 20
19.00000
 30
 0
 40
1.60000
  0
ARC
  8
Kontur
 62
   7
 39
0.200
  6
CONTINUOUS
 10
35.49904
 20
46.25000
 30
 0
 40
2.50000
 50
90.00093
 51
189.99720
  0
LINE
  8
Kontur
 62
   7
 39
0.200
  6
CONTINUOUS
 10
33.03700
 20
45.81600
 30
 0
 11
34.18400
 21
39.31600
  0
ARC
  8
Kontur
 62
   7
 39
0.200
  6
CONTINUOUS
 10
36.64604
 20
39.75000
 30
 0
 40
2.50000
 50
-170.00280
 51
-90.00093
  0
LINE
  8
Kontur
 62
   7
 39
0.200
  6
CONTINUOUS
 10
36.64600
 20
37.25000
 30
 0
 11
49.35400
 21
37.25000
  0
ARC
  8
Kontur
 62
   7
 39
0.200
  6
CONTINUOUS
 10
49.35396
 20
39.75000
 30
 0
 40
2.50000
 50
-89.99907
 51
-9.99720
  0
LINE
  8
Kontur
 62
   7
 39
0.200
  6
CONTINUOUS
 10
51.81600
 20
39.31600
 30
 0
 11
52.96300
 21
45.81600
  0
ARC
  8
Kontur
 62
   7
 39
0.200
  6
CONTINUOUS
 10
50.50096
 20
46.25000
 30
 0
 40
2.50000
 50
-9.99720
 51
89.99907
  0
LINE
  8
Kontur
 62
   7
 39
0.200
  6
CONTINUOUS
 10
50.50100
 20
48.75000
 30
 0
 11
35.49900
 21
48.75000
  0
CIRCLE
  8
Kontur
 62
   7
 39
0.200
  6
CONTINUOUS
 10
55.50000
 20
43.00000
 30
 0
 40
1.60000
  0
CIRCLE
  8
Kontur
 62
   7
 39
0.200
  6
CONTINUOUS
 10
30.50000
 20
43.00000
 30
 0
 40
1.60000
  0
ARC
  8
Kontur
 62
   7
 39
0.200
  6
CONTINUOUS
 10
35.49904
 20
70.25000
 30
 0
 40
2.50000
 50
90.00093
 51
189.99720
  0
LINE
  8
Kontur
 62
   7
 39
0.200
  6
CONTINUOUS
 10
33.03700
 20
69.81600
 30
 0
 11
34.18400
 21
63.31600
  0
ARC
  8
Kontur
 62
   7
 39
0.200
  6
CONTINUOUS
 10
36.64604
 20
63.75000
 30
 0
 40
2.50000
 50
-170.00280
 51
-90.00093
  0
LINE
  8
Kontur
 62
   7
 39
0.200
  6
CONTINUOUS
 10
36.64600
 20
61.25000
 30
 0
 11
49.35400
 21
61.25000
  0
ARC
  8
Kontur
 62
   7
 39
0.200
  6
CONTINUOUS
 10
49.35396
 20
63.75000
 30
 0
 40
2.50000
 50
-89.99907
 51
-9.99720
  0
LINE
  8
Kontur
 62
   7
 39
0.200
  6
CONTINUOUS
 10
51.81600
 20
63.31600
 30
 0
 11
52.96300
 21
69.81600
  0
ARC
  8
Kontur
 62
   7
 39
0.200
  6
CONTINUOUS
 10
50.50096
 20
70.25000
 30
 0
 40
2.50000
 50
-9.99720
 51
89.99907
  0
LINE
  8
Kontur
 62
   7
 39
0.200
  6
CONTINUOUS
 10
50.50100
 20
72.75000
 30
 0
 11
35.49900
 21
72.75000
  0
CIRCLE
  8
Kontur
 62
   7
 39
0.200
  6
CONTINUOUS
 10
55.50000
 20
67.00000
 30
 0
 40
1.60000
  0
CIRCLE
  8
Kontur
 62
   7
 39
0.200
  6
CONTINUOUS
 10
30.50000
 20
67.00000
 30
 0
 40
1.60000
  0
ARC
  8
Kontur
 62
   7
 39
0.200
  6
CONTINUOUS
 10
35.49904
 20
94.25000
 30
 0
 40
2.50000
 50
90.00093
 51
189.99720
  0
LINE
  8
Kontur
 62
   7
 39
0.200
  6
CONTINUOUS
 10
33.03700
 20
93.81600
 30
 0
 11
34.18400
 21
87.31600
  0
ARC
  8
Kontur
 62
   7
 39
0.200
  6
CONTINUOUS
 10
36.64604
 20
87.75000
 30
 0
 40
2.50000
 50
-170.00280
 51
-90.00093
  0
LINE
  8
Kontur
 62
   7
 39
0.200
  6
CONTINUOUS
 10
36.64600
 20
85.25000
 30
 0
 11
49.35400
 21
85.25000
  0
ARC
  8
Kontur
 62
   7
 39
0.200
  6
CONTINUOUS
 10
49.35396
 20
87.75000
 30
 0
 40
2.50000
 50
-89.99907
 51
-9.99720
  0
LINE
  8
Kontur
 62
   7
 39
0.200
  6
CONTINUOUS
 10
51.81600
 20
87.31600
 30
 0
 11
52.96300
 21
93.81600
  0
ARC
  8
Kontur
 62
   7
 39
0.200
  6
CONTINUOUS
 10
50.50096
 20
94.25000
 30
 0
 40
2.50000
 50
-9.99720
 51
89.99907
  0
LINE
  8
Kontur
 62
   7
 39
0.200
  6
CONTINUOUS
 10
50.50100
 20
96.75000
 30
 0
 11
35.49900
 21
96.75000
  0
CIRCLE
  8
Kontur
 62
   7
 39
0.200
  6
CONTINUOUS
 10
55.50000
 20
91.00000
 30
 0
 40
1.60000
  0
CIRCLE
  8
Kontur
 62
   7
 39
0.200
  6
CONTINUOUS
 10
30.50000
 20
91.00000
 30
 0
 40
1.60000
  0
ARC
  8
Kontur
 62
   7
 39
0.200
  6
CONTINUOUS
 10
5.61193
 20
3.65000
 30
 0
 40
1.00000
 50
449.99581
 51
160.54904
  0
LINE
  8
Kontur
 62
   7
 39
0.200
  6
CONTINUOUS
 10
5.61200
 20
4.65000
 30
 0
 11
9.28800
 21
4.65000
  0
ARC
  8
Kontur
 62
   7
 39
0.200
  6
CONTINUOUS
 10
9.28807
 20
3.65000
 30
 0
 40
1.00000
 50
379.45096
 51
90.00419
  0
ARC
  8
Kontur
 62
   7
 39
0.200
  6
CONTINUOUS
 10
7.44960
 20
3.00000
 30
 0
 40
2.95000
 50
340.53565
 51
19.46435
  0
ARC
  8
Kontur
 62
   7
 39
0.200
  6
CONTINUOUS
 10
9.28807
 20
2.35000
 30
 0
 40
1.00000
 50
269.99581
 51
-19.45096
  0
LINE
  8
Kontur
 62
   7
 39
0.200
  6
CONTINUOUS
 10
9.28800
 20
1.35000
 30
 0
 11
5.61200
 21
1.35000
  0
ARC
  8
Kontur
 62
   7
 39
0.200
  6
CONTINUOUS
 10
5.61193
 20
2.35000
 30
 0
 40
1.00000
 50
199.45096
 51
-89.99581
  0
ARC
  8
Kontur
 62
   7
 39
0.200
  6
CONTINUOUS
 10
7.45040
 20
3.00000
 30
 0
 40
2.95000
 50
160.53565
 51
-160.53565
  0
ARC
  8
Kontur
 62
   7
 39
0.200
  6
CONTINUOUS
 10
5.61193
 20
126.05000
 30
 0
 40
1.00000
 50
449.99581
 51
160.54904
  0
LINE
  8
Kontur
 62
   7
 39
0.200
  6
CONTINUOUS
 10
5.61200
 20
127.05000
 30
 0
 11
9.28800
 21
127.05000
  0
ARC
  8
Kontur
 62
   7
 39
0.200
  6
CONTINUOUS
 10
9.28807
 20
126.05000
 30
 0
 40
1.00000
 50
379.45096
 51
90.00419
  0
ARC
  8
Kontur
 62
   7
 39
0.200
  6
CONTINUOUS
 10
7.44960
 20
125.40000
 30
 0
 40
2.95000
 50
340.53565
 51
19.46435
  0
ARC
  8
Kontur
 62
   7
 39
0.200
  6
CONTINUOUS
 10
9.28807
 20
124.75000
 30
 0
 40
1.00000
 50
269.99581
 51
-19.45096
  0
LINE
  8
Kontur
 62
   7
 39
0.200
  6
CONTINUOUS
 10
9.28800
 20
123.75000
 30
 0
 11
5.61200
 21
123.75000
  0
ARC
  8
Kontur
 62
   7
 39
0.200
  6
CONTINUOUS
 10
5.61193
 20
124.75000
 30
 0
 40
1.00000
 50
199.45096
 51
-89.99581
  0
ARC
  8
Kontur
 62
   7
 39
0.200
  6
CONTINUOUS
 10
7.45040
 20
125.40000
 30
 0
 40
2.95000
 50
160.53565
 51
-160.53565
  0
CIRCLE
  8
Kontur
 62
   7
 39
0.200
  6
CONTINUOUS
 10
7.45000
 20
14.70000
 30
 0
 40
2.50000
  0
CIRCLE
  8
Kontur
 62
   7
 39
0.200
  6
CONTINUOUS
 10
7.45000
 20
14.70000
 30
 0
 40
1.35000
  0
CIRCLE
  8
Kontur
 62
   7
 39
0.200
  6
CONTINUOUS
 10
7.45000
 20
113.70000
 30
 0
 40
2.50000
  0
CIRCLE
  8
Kontur
 62
   7
 39
0.200
  6
CONTINUOUS
 10
7.45000
 20
113.70000
 30
 0
 40
1.35000
  0
ARC
  8
Kontur
 62
   7
 39
0.200
  6
CONTINUOUS
 10
51.33193
 20
3.65000
 30
 0
 40
1.00000
 50
449.99581
 51
160.54904
  0
LINE
  8
Kontur
 62
   7
 39
0.200
  6
CONTINUOUS
 10
51.33200
 20
4.65000
 30
 0
 11
55.00800
 21
4.65000
  0
ARC
  8
Kontur
 62
   7
 39
0.200
  6
CONTINUOUS
 10
55.00807
 20
3.65000
 30
 0
 40
1.00000
 50
379.45096
 51
90.00419
  0
ARC
  8
Kontur
 62
   7
 39
0.200
  6
CONTINUOUS
 10
53.16960
 20
3.00000
 30
 0
 40
2.95000
 50
340.53565
 51
19.46435
  0
ARC
  8
Kontur
 62
   7
 39
0.200
  6
CONTINUOUS
 10
55.00807
 20
2.35000
 30
 0
 40
1.00000
 50
269.99581
 51
-19.45096
  0
LINE
  8
Kontur
 62
   7
 39
0.200
  6
CONTINUOUS
 10
55.00800
 20
1.35000
 30
 0
 11
51.33200
 21
1.35000
  0
ARC
  8
Kontur
 62
   7
 39
0.200
  6
CONTINUOUS
 10
51.33193
 20
2.35000
 30
 0
 40
1.00000
 50
199.45096
 51
-89.99581
  0
ARC
  8
Kontur
 62
   7
 39
0.200
  6
CONTINUOUS
 10
53.17040
 20
3.00000
 30
 0
 40
2.95000
 50
160.53565
 51
-160.53565
  0
ARC
  8
Kontur
 62
   7
 39
0.200
  6
CONTINUOUS
 10
51.33193
 20
126.05000
 30
 0
 40
1.00000
 50
449.99581
 51
160.54904
  0
LINE
  8
Kontur
 62
   7
 39
0.200
  6
CONTINUOUS
 10
51.33200
 20
127.05000
 30
 0
 11
55.00800
 21
127.05000
  0
ARC
  8
Kontur
 62
   7
 39
0.200
  6
CONTINUOUS
 10
55.00807
 20
126.05000
 30
 0
 40
1.00000
 50
379.45096
 51
90.00419
  0
ARC
  8
Kontur
 62
   7
 39
0.200
  6
CONTINUOUS
 10
53.16960
 20
125.40000
 30
 0
 40
2.95000
 50
340.53565
 51
19.46435
  0
ARC
  8
Kontur
 62
   7
 39
0.200
  6
CONTINUOUS
 10
55.00807
 20
124.75000
 30
 0
 40
1.00000
 50
269.99581
 51
-19.45096
  0
LINE
  8
Kontur
 62
   7
 39
0.200
  6
CONTINUOUS
 10
55.00800
 20
123.75000
 30
 0
 11
51.33200
 21
123.75000
  0
ARC
  8
Kontur
 62
   7
 39
0.200
  6
CONTINUOUS
 10
51.33193
 20
124.75000
 30
 0
 40
1.00000
 50
199.45096
 51
-89.99581
  0
ARC
  8
Kontur
 62
   7
 39
0.200
  6
CONTINUOUS
 10
53.17040
 20
125.40000
 30
 0
 40
2.95000
 50
160.53565
 51
-160.53565
  0
ENDSEC
  0
EOF
