  0
SECTION
  2
HEADER
  0
ENDSEC
  0
SECTION
  2
TABLES
  0
TABLE
  2
LTYPE
 70
     1
  0
LTYPE
  2
CONTINUOUS
 70
    64
  3
Ausgezogene Linie
 72
    65
 73
     0
 40
0.0
  0
ENDTAB
  0
TABLE
  2
LAYER
 70
     3
  0
LAYER
  2
Kontur
 70
    64
 62
     7
  6
CONTINUOUS
  0
LAYER
  2
Gravur
 70
    64
 62
     7
  6
CONTINUOUS
  0
LAYER
  2
Bezugspunkte
 70
    64
 62
     1
  6
CONTINUOUS
  0
ENDTAB
  0
TABLE
  2
STYLE
 70
     1
  0
STYLE
  2
TXT
 70
    64
 40
0.0
 41
1.0
 50
0.0
 71
     0
 42
3.500000
  3
TXT
  0
ENDTAB
  0
ENDSEC
  0
SECTION
  2
BLOCKS
  0
ENDSEC
  0
SECTION
  2
ENTITIES
  0
LINE
  8
Kontur
 62
   7
 39
0.100
  6
CONTINUOUS
 10
25.23000
 20
128.40000
 30
 0
 11
0.00000
 21
128.40000
  0
LINE
  8
Kontur
 62
   7
 39
0.100
  6
CONTINUOUS
 10
0.00000
 20
128.40000
 30
 0
 11
0.00000
 21
128.40000
  0
LINE
  8
Kontur
 62
   7
 39
0.100
  6
CONTINUOUS
 10
0.00000
 20
128.40000
 30
 0
 11
0.00000
 21
0.00000
  0
LINE
  8
Kontur
 62
   7
 39
0.100
  6
CONTINUOUS
 10
0.00000
 20
0.00000
 30
 0
 11
0.00000
 21
0.00000
  0
LINE
  8
Kontur
 62
   7
 39
0.100
  6
CONTINUOUS
 10
0.00000
 20
0.00000
 30
 0
 11
50.46000
 21
0.00000
  0
LINE
  8
Kontur
 62
   7
 39
0.100
  6
CONTINUOUS
 10
50.46000
 20
0.00000
 30
 0
 11
50.46000
 21
0.00000
  0
LINE
  8
Kontur
 62
   7
 39
0.100
  6
CONTINUOUS
 10
50.46000
 20
0.00000
 30
 0
 11
50.46000
 21
128.40000
  0
LINE
  8
Kontur
 62
   7
 39
0.100
  6
CONTINUOUS
 10
50.46000
 20
128.40000
 30
 0
 11
50.46000
 21
128.40000
  0
LINE
  8
Kontur
 62
   7
 39
0.100
  6
CONTINUOUS
 10
50.46000
 20
128.40000
 30
 0
 11
25.23000
 21
128.40000
  0
LINE
  8
Gravur
 62
   7
 39
0.200
  6
CONTINUOUS
 10
15.34000
 20
116.45600
 30
 0
 11
16.17200
 21
116.45600
  0
ARC
  8
Gravur
 62
   7
 39
0.200
  6
CONTINUOUS
 10
12.77168
 20
116.27757
 30
 0
 40
3.40500
 50
3.00385
 51
8.41734
  0
ARC
  8
Gravur
 62
   7
 39
0.200
  6
CONTINUOUS
 10
15.53471
 20
116.74671
 30
 0
 40
0.60600
 50
2.77053
 51
87.22947
  0
ARC
  8
Gravur
 62
   7
 39
0.200
  6
CONTINUOUS
 10
14.57200
 20
96.36643
 30
 0
 40
21.00900
 50
87.29361
 51
92.70639
  0
ARC
  8
Gravur
 62
   7
 39
0.200
  6
CONTINUOUS
 10
13.62587
 20
116.76379
 30
 0
 40
0.59000
 50
94.45935
 51
178.81380
  0
ARC
  8
Gravur
 62
   7
 39
0.200
  6
CONTINUOUS
 10
24.54415
 20
116.23200
 30
 0
 40
11.52100
 50
177.29359
 51
182.70641
  0
ARC
  8
Gravur
 62
   7
 39
0.200
  6
CONTINUOUS
 10
13.62587
 20
115.70021
 30
 0
 40
0.59000
 50
-178.81380
 51
-94.45935
  0
ARC
  8
Gravur
 62
   7
 39
0.200
  6
CONTINUOUS
 10
14.57200
 20
136.09757
 30
 0
 40
21.00900
 50
-92.70639
 51
-87.29361
  0
ARC
  8
Gravur
 62
   7
 39
0.200
  6
CONTINUOUS
 10
15.53471
 20
115.71729
 30
 0
 40
0.60600
 50
-87.22947
 51
-2.77053
  0
ARC
  8
Gravur
 62
   7
 39
0.200
  6
CONTINUOUS
 10
12.77168
 20
116.18643
 30
 0
 40
3.40500
 50
-8.41734
 51
-3.00385
  0
LINE
  8
Gravur
 62
   7
 39
0.200
  6
CONTINUOUS
 10
16.17200
 20
116.00800
 30
 0
 11
15.34000
 21
116.00800
  0
ARC
  8
Gravur
 62
   7
 39
0.200
  6
CONTINUOUS
 10
15.05818
 20
116.03382
 30
 0
 40
0.28300
 50
275.23470
 51
-5.23470
  0
ARC
  8
Gravur
 62
   7
 39
0.200
  6
CONTINUOUS
 10
14.55600
 20
121.32705
 30
 0
 40
5.60000
 50
264.58979
 51
-84.58979
  0
ARC
  8
Gravur
 62
   7
 39
0.200
  6
CONTINUOUS
 10
14.05002
 20
115.99802
 30
 0
 40
0.24700
 50
185.11395
 51
-95.11395
  0
ARC
  8
Gravur
 62
   7
 39
0.200
  6
CONTINUOUS
 10
16.50690
 20
116.23200
 30
 0
 40
2.71500
 50
174.58949
 51
-174.58949
  0
ARC
  8
Gravur
 62
   7
 39
0.200
  6
CONTINUOUS
 10
14.05002
 20
116.46598
 30
 0
 40
0.24700
 50
455.11395
 51
174.88605
  0
ARC
  8
Gravur
 62
   7
 39
0.200
  6
CONTINUOUS
 10
14.55600
 20
111.13695
 30
 0
 40
5.60000
 50
444.58979
 51
95.41021
  0
ARC
  8
Gravur
 62
   7
 39
0.200
  6
CONTINUOUS
 10
15.05818
 20
116.43018
 30
 0
 40
0.28300
 50
365.23470
 51
84.76530
  0
LINE
  8
Gravur
 62
   7
 39
0.200
  6
CONTINUOUS
 10
17.51600
 20
118.31200
 30
 0
 11
18.41200
 21
118.31200
  0
LINE
  8
Gravur
 62
   7
 39
0.200
  6
CONTINUOUS
 10
18.41200
 20
118.31200
 30
 0
 11
17.77200
 21
117.67200
  0
LINE
  8
Gravur
 62
   7
 39
0.200
  6
CONTINUOUS
 10
17.77200
 20
117.67200
 30
 0
 11
17.13200
 21
117.67200
  0
LINE
  8
Gravur
 62
   7
 39
0.200
  6
CONTINUOUS
 10
17.13200
 20
117.67200
 30
 0
 11
17.51600
 21
118.31200
  0
LINE
  8
Gravur
 62
   7
 39
0.200
  6
CONTINUOUS
 10
19.75600
 20
117.86400
 30
 0
 11
20.58800
 21
117.86400
  0
LINE
  8
Gravur
 62
   7
 39
0.200
  6
CONTINUOUS
 10
20.58800
 20
117.86400
 30
 0
 11
20.58800
 21
117.35200
  0
LINE
  8
Gravur
 62
   7
 39
0.200
  6
CONTINUOUS
 10
20.58800
 20
117.35200
 30
 0
 11
21.93200
 21
117.35200
  0
LINE
  8
Gravur
 62
   7
 39
0.200
  6
CONTINUOUS
 10
21.93200
 20
117.35200
 30
 0
 11
21.93200
 21
116.77600
  0
LINE
  8
Gravur
 62
   7
 39
0.200
  6
CONTINUOUS
 10
21.93200
 20
116.77600
 30
 0
 11
20.58800
 21
116.77600
  0
LINE
  8
Gravur
 62
   7
 39
0.200
  6
CONTINUOUS
 10
20.58800
 20
116.77600
 30
 0
 11
20.58800
 21
116.00800
  0
ARC
  8
Gravur
 62
   7
 39
0.200
  6
CONTINUOUS
 10
20.84500
 20
116.00687
 30
 0
 40
0.25700
 50
179.74871
 51
262.62314
  0
ARC
  8
Gravur
 62
   7
 39
0.200
  6
CONTINUOUS
 10
20.90800
 20
116.51095
 30
 0
 40
0.76500
 50
-97.20906
 51
-82.79094
  0
ARC
  8
Gravur
 62
   7
 39
0.200
  6
CONTINUOUS
 10
20.97100
 20
116.00687
 30
 0
 40
0.25700
 50
-82.62314
 51
0.25129
  0
LINE
  8
Gravur
 62
   7
 39
0.200
  6
CONTINUOUS
 10
21.22800
 20
116.00800
 30
 0
 11
21.22800
 21
116.13600
  0
LINE
  8
Gravur
 62
   7
 39
0.200
  6
CONTINUOUS
 10
21.22800
 20
116.13600
 30
 0
 11
22.06000
 21
116.13600
  0
LINE
  8
Gravur
 62
   7
 39
0.200
  6
CONTINUOUS
 10
22.06000
 20
116.13600
 30
 0
 11
22.06000
 21
115.75200
  0
ARC
  8
Gravur
 62
   7
 39
0.200
  6
CONTINUOUS
 10
21.42201
 20
115.74929
 30
 0
 40
0.63800
 50
272.69464
 51
0.24296
  0
ARC
  8
Gravur
 62
   7
 39
0.200
  6
CONTINUOUS
 10
20.90800
 20
126.62015
 30
 0
 40
11.52100
 50
267.29359
 51
-87.29359
  0
ARC
  8
Gravur
 62
   7
 39
0.200
  6
CONTINUOUS
 10
20.39399
 20
115.74929
 30
 0
 40
0.63800
 50
179.75704
 51
-92.69464
  0
LINE
  8
Gravur
 62
   7
 39
0.200
  6
CONTINUOUS
 10
19.75600
 20
115.75200
 30
 0
 11
19.75600
 21
116.77600
  0
LINE
  8
Gravur
 62
   7
 39
0.200
  6
CONTINUOUS
 10
19.75600
 20
116.77600
 30
 0
 11
19.37200
 21
116.77600
  0
LINE
  8
Gravur
 62
   7
 39
0.200
  6
CONTINUOUS
 10
19.37200
 20
116.77600
 30
 0
 11
19.37200
 21
117.35200
  0
LINE
  8
Gravur
 62
   7
 39
0.200
  6
CONTINUOUS
 10
19.37200
 20
117.35200
 30
 0
 11
19.75600
 21
117.35200
  0
LINE
  8
Gravur
 62
   7
 39
0.200
  6
CONTINUOUS
 10
19.75600
 20
117.35200
 30
 0
 11
19.75600
 21
117.86400
  0
LINE
  8
Gravur
 62
   7
 39
0.200
  6
CONTINUOUS
 10
26.79600
 20
117.60800
 30
 0
 11
26.79600
 21
115.81600
  0
LINE
  8
Gravur
 62
   7
 39
0.200
  6
CONTINUOUS
 10
26.79600
 20
115.81600
 30
 0
 11
28.78000
 21
115.81600
  0
ARC
  8
Gravur
 62
   7
 39
0.200
  6
CONTINUOUS
 10
28.78201
 20
116.19799
 30
 0
 40
0.38200
 50
-90.30077
 51
0.30077
  0
LINE
  8
Gravur
 62
   7
 39
0.200
  6
CONTINUOUS
 10
29.16400
 20
116.20000
 30
 0
 11
29.16400
 21
117.22400
  0
ARC
  8
Gravur
 62
   7
 39
0.200
  6
CONTINUOUS
 10
28.78201
 20
117.22601
 30
 0
 40
0.38200
 50
-0.30077
 51
90.30077
  0
LINE
  8
Gravur
 62
   7
 39
0.200
  6
CONTINUOUS
 10
28.78000
 20
117.60800
 30
 0
 11
26.79600
 21
117.60800
  0
LINE
  8
Gravur
 62
   7
 39
0.200
  6
CONTINUOUS
 10
25.90000
 20
118.31200
 30
 0
 11
25.90000
 21
115.11200
  0
LINE
  8
Gravur
 62
   7
 39
0.200
  6
CONTINUOUS
 10
25.90000
 20
115.11200
 30
 0
 11
29.35600
 21
115.11200
  0
ARC
  8
Gravur
 62
   7
 39
0.200
  6
CONTINUOUS
 10
29.36001
 20
115.81199
 30
 0
 40
0.70000
 50
-90.32835
 51
0.32835
  0
LINE
  8
Gravur
 62
   7
 39
0.200
  6
CONTINUOUS
 10
30.06000
 20
115.81600
 30
 0
 11
30.06000
 21
117.60800
  0
ARC
  8
Gravur
 62
   7
 39
0.200
  6
CONTINUOUS
 10
29.35300
 20
117.60560
 30
 0
 40
0.70700
 50
0.19489
 51
92.35117
  0
LINE
  8
Gravur
 62
   7
 39
0.200
  6
CONTINUOUS
 10
29.32400
 20
118.31200
 30
 0
 11
25.90000
 21
118.31200
  0
LINE
  8
Gravur
 62
   7
 39
0.200
  6
CONTINUOUS
 10
31.02000
 20
118.31200
 30
 0
 11
31.02000
 21
115.11200
  0
LINE
  8
Gravur
 62
   7
 39
0.200
  6
CONTINUOUS
 10
31.02000
 20
115.11200
 30
 0
 11
31.91600
 21
115.11200
  0
LINE
  8
Gravur
 62
   7
 39
0.200
  6
CONTINUOUS
 10
31.91600
 20
115.11200
 30
 0
 11
31.91600
 21
118.31200
  0
LINE
  8
Gravur
 62
   7
 39
0.200
  6
CONTINUOUS
 10
31.91600
 20
118.31200
 30
 0
 11
31.02000
 21
118.31200
  0
LINE
  8
Gravur
 62
   7
 39
0.200
  6
CONTINUOUS
 10
32.87600
 20
118.31200
 30
 0
 11
33.96400
 21
118.31200
  0
LINE
  8
Gravur
 62
   7
 39
0.200
  6
CONTINUOUS
 10
33.96400
 20
118.31200
 30
 0
 11
35.21200
 21
115.81600
  0
LINE
  8
Gravur
 62
   7
 39
0.200
  6
CONTINUOUS
 10
35.21200
 20
115.81600
 30
 0
 11
35.34000
 21
115.81600
  0
LINE
  8
Gravur
 62
   7
 39
0.200
  6
CONTINUOUS
 10
35.34000
 20
115.81600
 30
 0
 11
36.58800
 21
118.31200
  0
LINE
  8
Gravur
 62
   7
 39
0.200
  6
CONTINUOUS
 10
36.58800
 20
118.31200
 30
 0
 11
37.67600
 21
118.31200
  0
LINE
  8
Gravur
 62
   7
 39
0.200
  6
CONTINUOUS
 10
37.67600
 20
118.31200
 30
 0
 11
35.98000
 21
115.11200
  0
LINE
  8
Gravur
 62
   7
 39
0.200
  6
CONTINUOUS
 10
35.98000
 20
115.11200
 30
 0
 11
34.57200
 21
115.11200
  0
LINE
  8
Gravur
 62
   7
 39
0.200
  6
CONTINUOUS
 10
34.57200
 20
115.11200
 30
 0
 11
32.87600
 21
118.31200
  0
LINE
  8
Gravur
 62
   7
 39
0.200
  6
CONTINUOUS
 10
19.37500
 20
107.88800
 30
 0
 11
19.88500
 21
109.11200
  0
LINE
  8
Gravur
 62
   7
 39
0.200
  6
CONTINUOUS
 10
19.88500
 20
109.11200
 30
 0
 11
20.39500
 21
110.33600
  0
LINE
  8
Gravur
 62
   7
 39
0.200
  6
CONTINUOUS
 10
20.39500
 20
110.33600
 30
 0
 11
20.46300
 21
110.33600
  0
LINE
  8
Gravur
 62
   7
 39
0.200
  6
CONTINUOUS
 10
20.46300
 20
110.33600
 30
 0
 11
20.97300
 21
109.11200
  0
LINE
  8
Gravur
 62
   7
 39
0.200
  6
CONTINUOUS
 10
20.97300
 20
109.11200
 30
 0
 11
21.48300
 21
107.88800
  0
LINE
  8
Gravur
 62
   7
 39
0.200
  6
CONTINUOUS
 10
19.71500
 20
108.70400
 30
 0
 11
21.14300
 21
108.70400
  0
LINE
  8
Gravur
 62
   7
 39
0.200
  6
CONTINUOUS
 10
21.85700
 20
109.58800
 30
 0
 11
21.85700
 21
108.36400
  0
ARC
  8
Gravur
 62
   7
 39
0.200
  6
CONTINUOUS
 10
22.32999
 20
108.36099
 30
 0
 40
0.47300
 50
179.63544
 51
270.36456
  0
ARC
  8
Gravur
 62
   7
 39
0.200
  6
CONTINUOUS
 10
22.33701
 20
108.63199
 30
 0
 40
0.74400
 50
-90.30888
 51
0.30888
  0
LINE
  8
Gravur
 62
   7
 39
0.200
  6
CONTINUOUS
 10
23.08100
 20
108.63600
 30
 0
 11
23.08100
 21
109.58800
  0
LINE
  8
Gravur
 62
   7
 39
0.200
  6
CONTINUOUS
 10
23.08100
 20
109.58800
 30
 0
 11
23.08100
 21
107.88800
  0
LINE
  8
Gravur
 62
   7
 39
0.200
  6
CONTINUOUS
 10
23.45500
 20
109.65600
 30
 0
 11
24.06700
 21
109.65600
  0
LINE
  8
Gravur
 62
   7
 39
0.200
  6
CONTINUOUS
 10
24.06700
 20
109.65600
 30
 0
 11
23.72700
 21
109.65600
  0
LINE
  8
Gravur
 62
   7
 39
0.200
  6
CONTINUOUS
 10
23.72700
 20
109.65600
 30
 0
 11
23.72700
 21
110.20000
  0
LINE
  8
Gravur
 62
   7
 39
0.200
  6
CONTINUOUS
 10
23.72700
 20
110.20000
 30
 0
 11
23.72700
 21
108.22800
  0
ARC
  8
Gravur
 62
   7
 39
0.200
  6
CONTINUOUS
 10
24.06499
 20
108.22599
 30
 0
 40
0.33800
 50
179.65996
 51
270.34004
  0
ARC
  8
Gravur
 62
   7
 39
0.200
  6
CONTINUOUS
 10
25.94650
 20
108.78050
 30
 0
 40
1.49800
 50
169.20768
 51
-169.20768
  0
ARC
  8
Gravur
 62
   7
 39
0.200
  6
CONTINUOUS
 10
25.20600
 20
108.92253
 30
 0
 40
0.74400
 50
370.72648
 51
169.27352
  0
ARC
  8
Gravur
 62
   7
 39
0.200
  6
CONTINUOUS
 10
24.46550
 20
108.78050
 30
 0
 40
1.49800
 50
349.20768
 51
10.79232
  0
ARC
  8
Gravur
 62
   7
 39
0.200
  6
CONTINUOUS
 10
25.20600
 20
108.63847
 30
 0
 40
0.74400
 50
190.72648
 51
-10.72648
  0
LINE
  8
Gravur
 62
   7
 39
0.200
  6
CONTINUOUS
 10
26.34500
 20
109.58800
 30
 0
 11
26.34500
 21
107.88800
  0
LINE
  8
Gravur
 62
   7
 39
0.200
  6
CONTINUOUS
 10
26.34500
 20
107.88800
 30
 0
 11
26.34500
 21
108.90800
  0
ARC
  8
Gravur
 62
   7
 39
0.200
  6
CONTINUOUS
 10
27.10400
 20
108.90546
 30
 0
 40
0.75900
 50
458.56171
 51
179.80812
  0
ARC
  8
Gravur
 62
   7
 39
0.200
  6
CONTINUOUS
 10
27.95487
 20
109.17715
 30
 0
 40
0.47900
 50
451.42053
 51
169.43163
  0
LINE
  8
Gravur
 62
   7
 39
0.200
  6
CONTINUOUS
 10
27.94300
 20
109.65600
 30
 0
 11
28.14700
 21
109.65600
  0
ARC
  8
Gravur
 62
   7
 39
0.200
  6
CONTINUOUS
 10
28.15001
 20
109.18301
 30
 0
 40
0.47300
 50
359.63544
 51
90.36456
  0
LINE
  8
Gravur
 62
   7
 39
0.200
  6
CONTINUOUS
 10
28.62300
 20
109.18000
 30
 0
 11
28.62300
 21
108.50000
  0
ARC
  8
Gravur
 62
   7
 39
0.200
  6
CONTINUOUS
 10
27.81405
 20
108.66194
 30
 0
 40
0.82500
 50
270.69105
 51
-11.32014
  0
ARC
  8
Gravur
 62
   7
 39
0.200
  6
CONTINUOUS
 10
27.82099
 20
108.30999
 30
 0
 40
0.47300
 50
179.63544
 51
-89.63544
  0
ARC
  8
Gravur
 62
   7
 39
0.200
  6
CONTINUOUS
 10
27.75596
 20
108.31870
 30
 0
 40
0.40800
 50
99.58840
 51
-179.19954
  0
LINE
  8
Gravur
 62
   7
 39
0.200
  6
CONTINUOUS
 10
27.68800
 20
108.72100
 30
 0
 11
28.45300
 21
108.85700
  0
ARC
  8
Gravur
 62
   7
 39
0.200
  6
CONTINUOUS
 10
28.42499
 20
109.05907
 30
 0
 40
0.20400
 50
-82.10785
 51
-13.91772
  0
LINE
  8
Gravur
 62
   7
 39
0.200
  6
CONTINUOUS
 10
28.62300
 20
109.01000
 30
 0
 11
28.62300
 21
108.16000
  0
ARC
  8
Gravur
 62
   7
 39
0.200
  6
CONTINUOUS
 10
28.89400
 20
108.15900
 30
 0
 40
0.27100
 50
179.78818
 51
270.21182
  0
LINE
  8
Gravur
 62
   7
 39
0.200
  6
CONTINUOUS
 10
29.26900
 20
109.58800
 30
 0
 11
29.26900
 21
107.88800
  0
LINE
  8
Gravur
 62
   7
 39
0.200
  6
CONTINUOUS
 10
29.26900
 20
107.88800
 30
 0
 11
29.26900
 21
108.90800
  0
ARC
  8
Gravur
 62
   7
 39
0.200
  6
CONTINUOUS
 10
30.01299
 20
108.91201
 30
 0
 40
0.74400
 50
89.69112
 51
-179.69112
  0
ARC
  8
Gravur
 62
   7
 39
0.200
  6
CONTINUOUS
 10
30.02001
 20
109.11501
 30
 0
 40
0.54100
 50
359.68139
 51
90.31861
  0
LINE
  8
Gravur
 62
   7
 39
0.200
  6
CONTINUOUS
 10
30.56100
 20
109.11200
 30
 0
 11
30.56100
 21
107.88800
  0
LINE
  8
Gravur
 62
   7
 39
0.200
  6
CONTINUOUS
 10
32.43100
 20
109.58800
 30
 0
 11
32.43100
 21
108.63600
  0
ARC
  8
Gravur
 62
   7
 39
0.200
  6
CONTINUOUS
 10
31.68515
 20
108.62085
 30
 0
 40
0.74600
 50
190.64825
 51
1.16403
  0
ARC
  8
Gravur
 62
   7
 39
0.200
  6
CONTINUOUS
 10
32.42350
 20
108.76350
 30
 0
 40
1.49800
 50
169.20768
 51
-169.20768
  0
ARC
  8
Gravur
 62
   7
 39
0.200
  6
CONTINUOUS
 10
31.68500
 20
108.90536
 30
 0
 40
0.74600
 50
360.20252
 51
169.28988
  0
LINE
  8
Gravur
 62
   7
 39
0.200
  6
CONTINUOUS
 10
32.43100
 20
108.90800
 30
 0
 11
32.43100
 21
107.82000
  0
ARC
  8
Gravur
 62
   7
 39
0.200
  6
CONTINUOUS
 10
31.81708
 20
107.80998
 30
 0
 40
0.61400
 50
281.35779
 51
0.93546
  0
ARC
  8
Gravur
 62
   7
 39
0.200
  6
CONTINUOUS
 10
31.68300
 20
108.54490
 30
 0
 40
1.36100
 50
259.20111
 51
-79.20111
  0
ARC
  8
Gravur
 62
   7
 39
0.200
  6
CONTINUOUS
 10
31.54879
 20
107.81102
 30
 0
 40
0.61500
 50
210.70414
 51
-101.32656
  0
LINE
  8
Gravur
 62
   7
 39
0.200
  6
CONTINUOUS
 10
32.82200
 20
108.78900
 30
 0
 11
34.31800
 21
108.78900
  0
LINE
  8
Gravur
 62
   7
 39
0.200
  6
CONTINUOUS
 10
34.31800
 20
108.78900
 30
 0
 11
34.31800
 21
108.92500
  0
ARC
  8
Gravur
 62
   7
 39
0.200
  6
CONTINUOUS
 10
33.57200
 20
108.92236
 30
 0
 40
0.74600
 50
0.20252
 51
169.28988
  0
ARC
  8
Gravur
 62
   7
 39
0.200
  6
CONTINUOUS
 10
34.31050
 20
108.78050
 30
 0
 40
1.49800
 50
169.20768
 51
190.79232
  0
ARC
  8
Gravur
 62
   7
 39
0.200
  6
CONTINUOUS
 10
33.63638
 20
108.64800
 30
 0
 40
0.81100
 50
-169.48524
 51
-89.88567
  0
ARC
  8
Gravur
 62
   7
 39
0.200
  6
CONTINUOUS
 10
33.63561
 20
108.65800
 30
 0
 40
0.82100
 50
-89.83333
 51
-31.58395
  0
LINE
  8
Gravur
 62
   7
 39
0.200
  6
CONTINUOUS
 10
15.26400
 20
82.36400
 30
 0
 11
17.76400
 21
78.03400
  0
LINE
  8
Gravur
 62
   7
 39
0.200
  6
CONTINUOUS
 10
15.25200
 20
82.35100
 30
 0
 11
12.75200
 21
78.02100
  0
LINE
  8
Gravur
 62
   7
 39
0.200
  6
CONTINUOUS
 10
12.74600
 20
78.00400
 30
 0
 11
17.74600
 21
78.00400
  0
LINE
  8
Gravur
 62
   7
 39
0.200
  6
CONTINUOUS
 10
15.20600
 20
38.99100
 30
 0
 11
12.70600
 21
43.32100
  0
LINE
  8
Gravur
 62
   7
 39
0.200
  6
CONTINUOUS
 10
15.21800
 20
39.00400
 30
 0
 11
17.71800
 21
43.33400
  0
LINE
  8
Gravur
 62
   7
 39
0.200
  6
CONTINUOUS
 10
17.72400
 20
43.35100
 30
 0
 11
12.72400
 21
43.35100
  0
ARC
  8
Kontur
 62
   7
 39
0.200
  6
CONTINUOUS
 10
5.61193
 20
3.65000
 30
 0
 40
1.00000
 50
449.99581
 51
160.54904
  0
LINE
  8
Kontur
 62
   7
 39
0.200
  6
CONTINUOUS
 10
5.61200
 20
4.65000
 30
 0
 11
9.28800
 21
4.65000
  0
ARC
  8
Kontur
 62
   7
 39
0.200
  6
CONTINUOUS
 10
9.28807
 20
3.65000
 30
 0
 40
1.00000
 50
379.45096
 51
90.00419
  0
ARC
  8
Kontur
 62
   7
 39
0.200
  6
CONTINUOUS
 10
7.44960
 20
3.00000
 30
 0
 40
2.95000
 50
340.53565
 51
19.46435
  0
ARC
  8
Kontur
 62
   7
 39
0.200
  6
CONTINUOUS
 10
9.28807
 20
2.35000
 30
 0
 40
1.00000
 50
269.99581
 51
-19.45096
  0
LINE
  8
Kontur
 62
   7
 39
0.200
  6
CONTINUOUS
 10
9.28800
 20
1.35000
 30
 0
 11
5.61200
 21
1.35000
  0
ARC
  8
Kontur
 62
   7
 39
0.200
  6
CONTINUOUS
 10
5.61193
 20
2.35000
 30
 0
 40
1.00000
 50
199.45096
 51
-89.99581
  0
ARC
  8
Kontur
 62
   7
 39
0.200
  6
CONTINUOUS
 10
7.45040
 20
3.00000
 30
 0
 40
2.95000
 50
160.53565
 51
-160.53565
  0
ARC
  8
Kontur
 62
   7
 39
0.200
  6
CONTINUOUS
 10
5.61193
 20
126.05000
 30
 0
 40
1.00000
 50
449.99581
 51
160.54904
  0
LINE
  8
Kontur
 62
   7
 39
0.200
  6
CONTINUOUS
 10
5.61200
 20
127.05000
 30
 0
 11
9.28800
 21
127.05000
  0
ARC
  8
Kontur
 62
   7
 39
0.200
  6
CONTINUOUS
 10
9.28807
 20
126.05000
 30
 0
 40
1.00000
 50
379.45096
 51
90.00419
  0
ARC
  8
Kontur
 62
   7
 39
0.200
  6
CONTINUOUS
 10
7.44960
 20
125.40000
 30
 0
 40
2.95000
 50
340.53565
 51
19.46435
  0
ARC
  8
Kontur
 62
   7
 39
0.200
  6
CONTINUOUS
 10
9.28807
 20
124.75000
 30
 0
 40
1.00000
 50
269.99581
 51
-19.45096
  0
LINE
  8
Kontur
 62
   7
 39
0.200
  6
CONTINUOUS
 10
9.28800
 20
123.75000
 30
 0
 11
5.61200
 21
123.75000
  0
ARC
  8
Kontur
 62
   7
 39
0.200
  6
CONTINUOUS
 10
5.61193
 20
124.75000
 30
 0
 40
1.00000
 50
199.45096
 51
-89.99581
  0
ARC
  8
Kontur
 62
   7
 39
0.200
  6
CONTINUOUS
 10
7.45040
 20
125.40000
 30
 0
 40
2.95000
 50
160.53565
 51
-160.53565
  0
CIRCLE
  8
Kontur
 62
   7
 39
0.200
  6
CONTINUOUS
 10
7.57000
 20
109.12000
 30
 0
 40
3.00000
  0
CIRCLE
  8
Kontur
 62
   7
 39
0.200
  6
CONTINUOUS
 10
7.57000
 20
109.12000
 30
 0
 40
1.60000
  0
ARC
  8
Kontur
 62
   7
 39
0.200
  6
CONTINUOUS
 10
41.17193
 20
3.65000
 30
 0
 40
1.00000
 50
449.99581
 51
160.54904
  0
LINE
  8
Kontur
 62
   7
 39
0.200
  6
CONTINUOUS
 10
41.17200
 20
4.65000
 30
 0
 11
44.84800
 21
4.65000
  0
ARC
  8
Kontur
 62
   7
 39
0.200
  6
CONTINUOUS
 10
44.84807
 20
3.65000
 30
 0
 40
1.00000
 50
379.45096
 51
90.00419
  0
ARC
  8
Kontur
 62
   7
 39
0.200
  6
CONTINUOUS
 10
43.00960
 20
3.00000
 30
 0
 40
2.95000
 50
340.53565
 51
19.46435
  0
ARC
  8
Kontur
 62
   7
 39
0.200
  6
CONTINUOUS
 10
44.84807
 20
2.35000
 30
 0
 40
1.00000
 50
269.99581
 51
-19.45096
  0
LINE
  8
Kontur
 62
   7
 39
0.200
  6
CONTINUOUS
 10
44.84800
 20
1.35000
 30
 0
 11
41.17200
 21
1.35000
  0
ARC
  8
Kontur
 62
   7
 39
0.200
  6
CONTINUOUS
 10
41.17193
 20
2.35000
 30
 0
 40
1.00000
 50
199.45096
 51
-89.99581
  0
ARC
  8
Kontur
 62
   7
 39
0.200
  6
CONTINUOUS
 10
43.01040
 20
3.00000
 30
 0
 40
2.95000
 50
160.53565
 51
-160.53565
  0
ARC
  8
Kontur
 62
   7
 39
0.200
  6
CONTINUOUS
 10
41.17193
 20
126.05000
 30
 0
 40
1.00000
 50
449.99581
 51
160.54904
  0
LINE
  8
Kontur
 62
   7
 39
0.200
  6
CONTINUOUS
 10
41.17200
 20
127.05000
 30
 0
 11
44.84800
 21
127.05000
  0
ARC
  8
Kontur
 62
   7
 39
0.200
  6
CONTINUOUS
 10
44.84807
 20
126.05000
 30
 0
 40
1.00000
 50
379.45096
 51
90.00419
  0
ARC
  8
Kontur
 62
   7
 39
0.200
  6
CONTINUOUS
 10
43.00960
 20
125.40000
 30
 0
 40
2.95000
 50
340.53565
 51
19.46435
  0
ARC
  8
Kontur
 62
   7
 39
0.200
  6
CONTINUOUS
 10
44.84807
 20
124.75000
 30
 0
 40
1.00000
 50
269.99581
 51
-19.45096
  0
LINE
  8
Kontur
 62
   7
 39
0.200
  6
CONTINUOUS
 10
44.84800
 20
123.75000
 30
 0
 11
41.17200
 21
123.75000
  0
ARC
  8
Kontur
 62
   7
 39
0.200
  6
CONTINUOUS
 10
41.17193
 20
124.75000
 30
 0
 40
1.00000
 50
199.45096
 51
-89.99581
  0
ARC
  8
Kontur
 62
   7
 39
0.200
  6
CONTINUOUS
 10
43.01040
 20
125.40000
 30
 0
 40
2.95000
 50
160.53565
 51
-160.53565
  0
CIRCLE
  8
Kontur
 62
   7
 39
0.200
  6
CONTINUOUS
 10
7.57000
 20
17.68000
 30
 0
 40
3.00000
  0
CIRCLE
  8
Kontur
 62
   7
 39
0.200
  6
CONTINUOUS
 10
7.57000
 20
17.68000
 30
 0
 40
1.60000
  0
CIRCLE
  8
Kontur
 62
   7
 39
0.200
  6
CONTINUOUS
 10
15.19000
 20
71.02000
 30
 0
 40
4.50000
  0
ARC
  8
Kontur
 62
   7
 39
0.200
  6
CONTINUOUS
 10
40.85000
 20
98.38000
 30
 0
 40
1.50000
 50
360.00000
 51
90.00000
  0
LINE
  8
Kontur
 62
   7
 39
0.200
  6
CONTINUOUS
 10
42.35000
 20
98.38000
 30
 0
 11
42.35000
 21
89.38000
  0
ARC
  8
Kontur
 62
   7
 39
0.200
  6
CONTINUOUS
 10
40.85000
 20
89.38000
 30
 0
 40
1.50000
 50
270.00000
 51
0.00000
  0
LINE
  8
Kontur
 62
   7
 39
0.200
  6
CONTINUOUS
 10
40.85000
 20
87.88000
 30
 0
 11
9.85000
 21
87.88000
  0
ARC
  8
Kontur
 62
   7
 39
0.200
  6
CONTINUOUS
 10
9.85000
 20
89.38000
 30
 0
 40
1.50000
 50
180.00000
 51
-90.00000
  0
LINE
  8
Kontur
 62
   7
 39
0.200
  6
CONTINUOUS
 10
8.35000
 20
89.38000
 30
 0
 11
8.35000
 21
98.38000
  0
ARC
  8
Kontur
 62
   7
 39
0.200
  6
CONTINUOUS
 10
9.85000
 20
98.38000
 30
 0
 40
1.50000
 50
450.00000
 51
180.00000
  0
LINE
  8
Kontur
 62
   7
 39
0.200
  6
CONTINUOUS
 10
9.85000
 20
99.88000
 30
 0
 11
40.85000
 21
99.88000
  0
CIRCLE
  8
Kontur
 62
   7
 39
0.200
  6
CONTINUOUS
 10
15.19000
 20
60.86000
 30
 0
 40
1.50000
  0
CIRCLE
  8
Kontur
 62
   7
 39
0.200
  6
CONTINUOUS
 10
34.24100
 20
60.86000
 30
 0
 40
4.50000
  0
CIRCLE
  8
Kontur
 62
   7
 39
0.200
  6
CONTINUOUS
 10
15.19100
 20
50.70000
 30
 0
 40
4.50000
  0
CIRCLE
  8
Kontur
 62
   7
 39
0.200
  6
CONTINUOUS
 10
16.46000
 20
109.12000
 30
 0
 40
1.50000
  0
CIRCLE
  8
Kontur
 62
   7
 39
0.200
  6
CONTINUOUS
 10
43.13000
 20
109.12000
 30
 0
 40
3.00000
  0
CIRCLE
  8
Kontur
 62
   7
 39
0.200
  6
CONTINUOUS
 10
43.13000
 20
109.12000
 30
 0
 40
1.60000
  0
CIRCLE
  8
Kontur
 62
   7
 39
0.200
  6
CONTINUOUS
 10
43.13000
 20
17.68000
 30
 0
 40
3.00000
  0
CIRCLE
  8
Kontur
 62
   7
 39
0.200
  6
CONTINUOUS
 10
43.13000
 20
17.68000
 30
 0
 40
1.60000
  0
CIRCLE
  8
Kontur
 62
   7
 39
0.200
  6
CONTINUOUS
 10
34.85000
 20
25.30000
 30
 0
 40
3.80000
  0
CIRCLE
  8
Kontur
 62
   7
 39
0.200
  6
CONTINUOUS
 10
15.85000
 20
25.30000
 30
 0
 40
3.80000
  0
ENDSEC
  0
EOF
