  0
SECTION
  2
HEADER
  0
ENDSEC
  0
SECTION
  2
TABLES
  0
TABLE
  2
LTYPE
 70
     1
  0
LTYPE
  2
CONTINUOUS
 70
    64
  3
Ausgezogene Linie
 72
    65
 73
     0
 40
0.0
  0
ENDTAB
  0
TABLE
  2
LAYER
 70
     3
  0
LAYER
  2
Kontur
 70
    64
 62
     7
  6
CONTINUOUS
  0
LAYER
  2
Gravur
 70
    64
 62
     7
  6
CONTINUOUS
  0
LAYER
  2
Bezugspunkte
 70
    64
 62
     1
  6
CONTINUOUS
  0
ENDTAB
  0
TABLE
  2
STYLE
 70
     1
  0
STYLE
  2
TXT
 70
    64
 40
0.0
 41
1.0
 50
0.0
 71
     0
 42
3.500000
  3
TXT
  0
ENDTAB
  0
ENDSEC
  0
SECTION
  2
BLOCKS
  0
ENDSEC
  0
SECTION
  2
ENTITIES
  0
LINE
  8
Kontur
 62
   7
 39
0.100
  6
CONTINUOUS
 10
25.23000
 20
128.40000
 30
 0
 11
0.00000
 21
128.40000
  0
LINE
  8
Kontur
 62
   7
 39
0.100
  6
CONTINUOUS
 10
0.00000
 20
128.40000
 30
 0
 11
0.00000
 21
128.40000
  0
LINE
  8
Kontur
 62
   7
 39
0.100
  6
CONTINUOUS
 10
0.00000
 20
128.40000
 30
 0
 11
0.00000
 21
0.00000
  0
LINE
  8
Kontur
 62
   7
 39
0.100
  6
CONTINUOUS
 10
0.00000
 20
0.00000
 30
 0
 11
0.00000
 21
0.00000
  0
LINE
  8
Kontur
 62
   7
 39
0.100
  6
CONTINUOUS
 10
0.00000
 20
0.00000
 30
 0
 11
50.46000
 21
0.00000
  0
LINE
  8
Kontur
 62
   7
 39
0.100
  6
CONTINUOUS
 10
50.46000
 20
0.00000
 30
 0
 11
50.46000
 21
0.00000
  0
LINE
  8
Kontur
 62
   7
 39
0.100
  6
CONTINUOUS
 10
50.46000
 20
0.00000
 30
 0
 11
50.46000
 21
128.40000
  0
LINE
  8
Kontur
 62
   7
 39
0.100
  6
CONTINUOUS
 10
50.46000
 20
128.40000
 30
 0
 11
50.46000
 21
128.40000
  0
LINE
  8
Kontur
 62
   7
 39
0.100
  6
CONTINUOUS
 10
50.46000
 20
128.40000
 30
 0
 11
25.23000
 21
128.40000
  0
LINE
  8
Gravur
 62
   7
 39
0.200
  6
CONTINUOUS
 10
14.18800
 20
116.45600
 30
 0
 11
15.02000
 21
116.45600
  0
ARC
  8
Gravur
 62
   7
 39
0.200
  6
CONTINUOUS
 10
11.61968
 20
116.27757
 30
 0
 40
3.40500
 50
3.00385
 51
8.41734
  0
ARC
  8
Gravur
 62
   7
 39
0.200
  6
CONTINUOUS
 10
14.38271
 20
116.74671
 30
 0
 40
0.60600
 50
2.77053
 51
87.22947
  0
ARC
  8
Gravur
 62
   7
 39
0.200
  6
CONTINUOUS
 10
13.42000
 20
96.36643
 30
 0
 40
21.00900
 50
87.29361
 51
92.70639
  0
ARC
  8
Gravur
 62
   7
 39
0.200
  6
CONTINUOUS
 10
12.47387
 20
116.76379
 30
 0
 40
0.59000
 50
94.45935
 51
178.81380
  0
ARC
  8
Gravur
 62
   7
 39
0.200
  6
CONTINUOUS
 10
23.39215
 20
116.23200
 30
 0
 40
11.52100
 50
177.29359
 51
182.70641
  0
ARC
  8
Gravur
 62
   7
 39
0.200
  6
CONTINUOUS
 10
12.47387
 20
115.70021
 30
 0
 40
0.59000
 50
-178.81380
 51
-94.45935
  0
ARC
  8
Gravur
 62
   7
 39
0.200
  6
CONTINUOUS
 10
13.42000
 20
136.09757
 30
 0
 40
21.00900
 50
-92.70639
 51
-87.29361
  0
ARC
  8
Gravur
 62
   7
 39
0.200
  6
CONTINUOUS
 10
14.38271
 20
115.71729
 30
 0
 40
0.60600
 50
-87.22947
 51
-2.77053
  0
ARC
  8
Gravur
 62
   7
 39
0.200
  6
CONTINUOUS
 10
11.61968
 20
116.18643
 30
 0
 40
3.40500
 50
-8.41734
 51
-3.00385
  0
LINE
  8
Gravur
 62
   7
 39
0.200
  6
CONTINUOUS
 10
15.02000
 20
116.00800
 30
 0
 11
14.18800
 21
116.00800
  0
ARC
  8
Gravur
 62
   7
 39
0.200
  6
CONTINUOUS
 10
13.90618
 20
116.03382
 30
 0
 40
0.28300
 50
275.23470
 51
-5.23470
  0
ARC
  8
Gravur
 62
   7
 39
0.200
  6
CONTINUOUS
 10
13.40400
 20
121.32705
 30
 0
 40
5.60000
 50
264.58979
 51
-84.58979
  0
ARC
  8
Gravur
 62
   7
 39
0.200
  6
CONTINUOUS
 10
12.89802
 20
115.99802
 30
 0
 40
0.24700
 50
185.11395
 51
-95.11395
  0
ARC
  8
Gravur
 62
   7
 39
0.200
  6
CONTINUOUS
 10
15.35490
 20
116.23200
 30
 0
 40
2.71500
 50
174.58949
 51
-174.58949
  0
ARC
  8
Gravur
 62
   7
 39
0.200
  6
CONTINUOUS
 10
12.89802
 20
116.46598
 30
 0
 40
0.24700
 50
455.11395
 51
174.88605
  0
ARC
  8
Gravur
 62
   7
 39
0.200
  6
CONTINUOUS
 10
13.40400
 20
111.13695
 30
 0
 40
5.60000
 50
444.58979
 51
95.41021
  0
ARC
  8
Gravur
 62
   7
 39
0.200
  6
CONTINUOUS
 10
13.90618
 20
116.43018
 30
 0
 40
0.28300
 50
365.23470
 51
84.76530
  0
LINE
  8
Gravur
 62
   7
 39
0.200
  6
CONTINUOUS
 10
16.36400
 20
118.31200
 30
 0
 11
17.26000
 21
118.31200
  0
LINE
  8
Gravur
 62
   7
 39
0.200
  6
CONTINUOUS
 10
17.26000
 20
118.31200
 30
 0
 11
16.62000
 21
117.67200
  0
LINE
  8
Gravur
 62
   7
 39
0.200
  6
CONTINUOUS
 10
16.62000
 20
117.67200
 30
 0
 11
15.98000
 21
117.67200
  0
LINE
  8
Gravur
 62
   7
 39
0.200
  6
CONTINUOUS
 10
15.98000
 20
117.67200
 30
 0
 11
16.36400
 21
118.31200
  0
LINE
  8
Gravur
 62
   7
 39
0.200
  6
CONTINUOUS
 10
18.60400
 20
117.86400
 30
 0
 11
19.43600
 21
117.86400
  0
LINE
  8
Gravur
 62
   7
 39
0.200
  6
CONTINUOUS
 10
19.43600
 20
117.86400
 30
 0
 11
19.43600
 21
117.35200
  0
LINE
  8
Gravur
 62
   7
 39
0.200
  6
CONTINUOUS
 10
19.43600
 20
117.35200
 30
 0
 11
20.78000
 21
117.35200
  0
LINE
  8
Gravur
 62
   7
 39
0.200
  6
CONTINUOUS
 10
20.78000
 20
117.35200
 30
 0
 11
20.78000
 21
116.77600
  0
LINE
  8
Gravur
 62
   7
 39
0.200
  6
CONTINUOUS
 10
20.78000
 20
116.77600
 30
 0
 11
19.43600
 21
116.77600
  0
LINE
  8
Gravur
 62
   7
 39
0.200
  6
CONTINUOUS
 10
19.43600
 20
116.77600
 30
 0
 11
19.43600
 21
116.00800
  0
ARC
  8
Gravur
 62
   7
 39
0.200
  6
CONTINUOUS
 10
19.69300
 20
116.00687
 30
 0
 40
0.25700
 50
179.74871
 51
262.62314
  0
ARC
  8
Gravur
 62
   7
 39
0.200
  6
CONTINUOUS
 10
19.75600
 20
116.51095
 30
 0
 40
0.76500
 50
-97.20906
 51
-82.79094
  0
ARC
  8
Gravur
 62
   7
 39
0.200
  6
CONTINUOUS
 10
19.81900
 20
116.00687
 30
 0
 40
0.25700
 50
-82.62314
 51
0.25129
  0
LINE
  8
Gravur
 62
   7
 39
0.200
  6
CONTINUOUS
 10
20.07600
 20
116.00800
 30
 0
 11
20.07600
 21
116.13600
  0
LINE
  8
Gravur
 62
   7
 39
0.200
  6
CONTINUOUS
 10
20.07600
 20
116.13600
 30
 0
 11
20.90800
 21
116.13600
  0
LINE
  8
Gravur
 62
   7
 39
0.200
  6
CONTINUOUS
 10
20.90800
 20
116.13600
 30
 0
 11
20.90800
 21
115.75200
  0
ARC
  8
Gravur
 62
   7
 39
0.200
  6
CONTINUOUS
 10
20.27001
 20
115.74929
 30
 0
 40
0.63800
 50
272.69464
 51
0.24296
  0
ARC
  8
Gravur
 62
   7
 39
0.200
  6
CONTINUOUS
 10
19.75600
 20
126.62015
 30
 0
 40
11.52100
 50
267.29359
 51
-87.29359
  0
ARC
  8
Gravur
 62
   7
 39
0.200
  6
CONTINUOUS
 10
19.24199
 20
115.74929
 30
 0
 40
0.63800
 50
179.75704
 51
-92.69464
  0
LINE
  8
Gravur
 62
   7
 39
0.200
  6
CONTINUOUS
 10
18.60400
 20
115.75200
 30
 0
 11
18.60400
 21
116.77600
  0
LINE
  8
Gravur
 62
   7
 39
0.200
  6
CONTINUOUS
 10
18.60400
 20
116.77600
 30
 0
 11
18.22000
 21
116.77600
  0
LINE
  8
Gravur
 62
   7
 39
0.200
  6
CONTINUOUS
 10
18.22000
 20
116.77600
 30
 0
 11
18.22000
 21
117.35200
  0
LINE
  8
Gravur
 62
   7
 39
0.200
  6
CONTINUOUS
 10
18.22000
 20
117.35200
 30
 0
 11
18.60400
 21
117.35200
  0
LINE
  8
Gravur
 62
   7
 39
0.200
  6
CONTINUOUS
 10
18.60400
 20
117.35200
 30
 0
 11
18.60400
 21
117.86400
  0
LINE
  8
Gravur
 62
   7
 39
0.200
  6
CONTINUOUS
 10
25.64400
 20
117.60800
 30
 0
 11
25.64400
 21
115.81600
  0
LINE
  8
Gravur
 62
   7
 39
0.200
  6
CONTINUOUS
 10
25.64400
 20
115.81600
 30
 0
 11
27.62800
 21
115.81600
  0
ARC
  8
Gravur
 62
   7
 39
0.200
  6
CONTINUOUS
 10
27.63001
 20
116.19799
 30
 0
 40
0.38200
 50
-90.30077
 51
0.30077
  0
LINE
  8
Gravur
 62
   7
 39
0.200
  6
CONTINUOUS
 10
28.01200
 20
116.20000
 30
 0
 11
28.01200
 21
117.22400
  0
ARC
  8
Gravur
 62
   7
 39
0.200
  6
CONTINUOUS
 10
27.63001
 20
117.22601
 30
 0
 40
0.38200
 50
-0.30077
 51
90.30077
  0
LINE
  8
Gravur
 62
   7
 39
0.200
  6
CONTINUOUS
 10
27.62800
 20
117.60800
 30
 0
 11
25.64400
 21
117.60800
  0
LINE
  8
Gravur
 62
   7
 39
0.200
  6
CONTINUOUS
 10
24.74800
 20
118.31200
 30
 0
 11
24.74800
 21
115.11200
  0
LINE
  8
Gravur
 62
   7
 39
0.200
  6
CONTINUOUS
 10
24.74800
 20
115.11200
 30
 0
 11
28.20400
 21
115.11200
  0
ARC
  8
Gravur
 62
   7
 39
0.200
  6
CONTINUOUS
 10
28.20801
 20
115.81199
 30
 0
 40
0.70000
 50
-90.32835
 51
0.32835
  0
LINE
  8
Gravur
 62
   7
 39
0.200
  6
CONTINUOUS
 10
28.90800
 20
115.81600
 30
 0
 11
28.90800
 21
117.60800
  0
ARC
  8
Gravur
 62
   7
 39
0.200
  6
CONTINUOUS
 10
28.20100
 20
117.60560
 30
 0
 40
0.70700
 50
0.19489
 51
92.35117
  0
LINE
  8
Gravur
 62
   7
 39
0.200
  6
CONTINUOUS
 10
28.17200
 20
118.31200
 30
 0
 11
24.74800
 21
118.31200
  0
LINE
  8
Gravur
 62
   7
 39
0.200
  6
CONTINUOUS
 10
30.76400
 20
117.60800
 30
 0
 11
30.76400
 21
115.81600
  0
LINE
  8
Gravur
 62
   7
 39
0.200
  6
CONTINUOUS
 10
30.76400
 20
115.81600
 30
 0
 11
32.74800
 21
115.81600
  0
ARC
  8
Gravur
 62
   7
 39
0.200
  6
CONTINUOUS
 10
32.75001
 20
116.19799
 30
 0
 40
0.38200
 50
-90.30077
 51
0.30077
  0
LINE
  8
Gravur
 62
   7
 39
0.200
  6
CONTINUOUS
 10
33.13200
 20
116.20000
 30
 0
 11
33.13200
 21
117.22400
  0
ARC
  8
Gravur
 62
   7
 39
0.200
  6
CONTINUOUS
 10
32.75001
 20
117.22601
 30
 0
 40
0.38200
 50
-0.30077
 51
90.30077
  0
LINE
  8
Gravur
 62
   7
 39
0.200
  6
CONTINUOUS
 10
32.74800
 20
117.60800
 30
 0
 11
30.76400
 21
117.60800
  0
LINE
  8
Gravur
 62
   7
 39
0.200
  6
CONTINUOUS
 10
29.86800
 20
118.31200
 30
 0
 11
29.86800
 21
115.11200
  0
LINE
  8
Gravur
 62
   7
 39
0.200
  6
CONTINUOUS
 10
29.86800
 20
115.11200
 30
 0
 11
33.32400
 21
115.11200
  0
ARC
  8
Gravur
 62
   7
 39
0.200
  6
CONTINUOUS
 10
33.32801
 20
115.81199
 30
 0
 40
0.70000
 50
-90.32835
 51
0.32835
  0
LINE
  8
Gravur
 62
   7
 39
0.200
  6
CONTINUOUS
 10
34.02800
 20
115.81600
 30
 0
 11
34.02800
 21
117.60800
  0
ARC
  8
Gravur
 62
   7
 39
0.200
  6
CONTINUOUS
 10
33.32100
 20
117.60560
 30
 0
 40
0.70700
 50
0.19489
 51
92.35117
  0
LINE
  8
Gravur
 62
   7
 39
0.200
  6
CONTINUOUS
 10
33.29200
 20
118.31200
 30
 0
 11
29.86800
 21
118.31200
  0
LINE
  8
Gravur
 62
   7
 39
0.200
  6
CONTINUOUS
 10
35.88400
 20
116.07200
 30
 0
 11
34.98800
 21
116.07200
  0
LINE
  8
Gravur
 62
   7
 39
0.200
  6
CONTINUOUS
 10
34.98800
 20
116.07200
 30
 0
 11
34.98800
 21
115.81600
  0
ARC
  8
Gravur
 62
   7
 39
0.200
  6
CONTINUOUS
 10
35.67879
 20
115.83313
 30
 0
 40
0.69100
 50
-178.57940
 51
-94.21497
  0
ARC
  8
Gravur
 62
   7
 39
0.200
  6
CONTINUOUS
 10
36.90800
 20
128.66053
 30
 0
 40
13.57700
 50
-95.40971
 51
-84.59029
  0
ARC
  8
Gravur
 62
   7
 39
0.200
  6
CONTINUOUS
 10
38.13721
 20
115.83313
 30
 0
 40
0.69100
 50
-85.78503
 51
-1.42060
  0
LINE
  8
Gravur
 62
   7
 39
0.200
  6
CONTINUOUS
 10
38.82800
 20
115.81600
 30
 0
 11
38.82800
 21
116.32800
  0
ARC
  8
Gravur
 62
   7
 39
0.200
  6
CONTINUOUS
 10
38.12400
 20
116.32873
 30
 0
 40
0.70400
 50
-0.05922
 51
87.39478
  0
LINE
  8
Gravur
 62
   7
 39
0.200
  6
CONTINUOUS
 10
38.15600
 20
117.03200
 30
 0
 11
36.14000
 21
117.09600
  0
ARC
  8
Gravur
 62
   7
 39
0.200
  6
CONTINUOUS
 10
36.14000
 20
117.35200
 30
 0
 40
0.25600
 50
90.00000
 51
-90.00000
  0
LINE
  8
Gravur
 62
   7
 39
0.200
  6
CONTINUOUS
 10
36.14000
 20
117.60800
 30
 0
 11
37.67600
 21
117.60800
  0
ARC
  8
Gravur
 62
   7
 39
0.200
  6
CONTINUOUS
 10
37.67700
 20
117.35300
 30
 0
 40
0.25500
 50
359.77487
 51
90.22513
  0
LINE
  8
Gravur
 62
   7
 39
0.200
  6
CONTINUOUS
 10
37.93200
 20
117.35200
 30
 0
 11
38.82800
 21
117.35200
  0
LINE
  8
Gravur
 62
   7
 39
0.200
  6
CONTINUOUS
 10
38.82800
 20
117.35200
 30
 0
 11
38.82800
 21
117.60800
  0
ARC
  8
Gravur
 62
   7
 39
0.200
  6
CONTINUOUS
 10
38.13721
 20
117.59087
 30
 0
 40
0.69100
 50
1.42060
 51
85.78503
  0
ARC
  8
Gravur
 62
   7
 39
0.200
  6
CONTINUOUS
 10
36.90800
 20
104.76347
 30
 0
 40
13.57700
 50
84.59029
 51
95.40971
  0
ARC
  8
Gravur
 62
   7
 39
0.200
  6
CONTINUOUS
 10
35.69600
 20
117.57527
 30
 0
 40
0.70800
 50
95.51145
 51
179.94117
  0
LINE
  8
Gravur
 62
   7
 39
0.200
  6
CONTINUOUS
 10
34.98800
 20
117.57600
 30
 0
 11
34.98800
 21
117.12800
  0
ARC
  8
Gravur
 62
   7
 39
0.200
  6
CONTINUOUS
 10
35.69200
 20
117.12727
 30
 0
 40
0.70400
 50
179.94078
 51
267.39478
  0
LINE
  8
Gravur
 62
   7
 39
0.200
  6
CONTINUOUS
 10
35.66000
 20
116.42400
 30
 0
 11
37.67600
 21
116.36000
  0
ARC
  8
Gravur
 62
   7
 39
0.200
  6
CONTINUOUS
 10
37.67600
 20
116.08800
 30
 0
 40
0.27200
 50
270.00000
 51
90.00000
  0
LINE
  8
Gravur
 62
   7
 39
0.200
  6
CONTINUOUS
 10
37.67600
 20
115.81600
 30
 0
 11
36.14000
 21
115.81600
  0
ARC
  8
Gravur
 62
   7
 39
0.200
  6
CONTINUOUS
 10
36.13900
 20
116.07100
 30
 0
 40
0.25500
 50
179.77487
 51
-89.77487
  0
LINE
  8
Gravur
 62
   7
 39
0.200
  6
CONTINUOUS
 10
20.44500
 20
108.95800
 30
 0
 11
20.44500
 21
109.23000
  0
ARC
  8
Gravur
 62
   7
 39
0.200
  6
CONTINUOUS
 10
21.73591
 20
109.24507
 30
 0
 40
1.29100
 50
159.08185
 51
-179.33120
  0
ARC
  8
Gravur
 62
   7
 39
0.200
  6
CONTINUOUS
 10
21.53300
 20
109.27928
 30
 0
 40
1.09000
 50
383.04708
 51
156.95292
  0
ARC
  8
Gravur
 62
   7
 39
0.200
  6
CONTINUOUS
 10
21.33834
 20
109.20043
 30
 0
 40
1.30000
 50
361.30341
 51
22.88611
  0
LINE
  8
Gravur
 62
   7
 39
0.200
  6
CONTINUOUS
 10
22.63800
 20
109.23000
 30
 0
 11
22.63800
 21
108.95800
  0
ARC
  8
Gravur
 62
   7
 39
0.200
  6
CONTINUOUS
 10
21.33834
 20
108.98757
 30
 0
 40
1.30000
 50
337.11389
 51
-1.30341
  0
ARC
  8
Gravur
 62
   7
 39
0.200
  6
CONTINUOUS
 10
21.53300
 20
108.90872
 30
 0
 40
1.09000
 50
203.04708
 51
-23.04708
  0
ARC
  8
Gravur
 62
   7
 39
0.200
  6
CONTINUOUS
 10
21.73591
 20
108.94293
 30
 0
 40
1.29100
 50
179.33120
 51
-159.08185
  0
ARC
  8
Gravur
 62
   7
 39
0.200
  6
CONTINUOUS
 10
23.60499
 20
109.98001
 30
 0
 40
0.33800
 50
89.65996
 51
180.34004
  0
LINE
  8
Gravur
 62
   7
 39
0.200
  6
CONTINUOUS
 10
23.26700
 20
109.97800
 30
 0
 11
23.26700
 21
109.57000
  0
LINE
  8
Gravur
 62
   7
 39
0.200
  6
CONTINUOUS
 10
23.26700
 20
109.57000
 30
 0
 11
23.60700
 21
109.57000
  0
LINE
  8
Gravur
 62
   7
 39
0.200
  6
CONTINUOUS
 10
23.60700
 20
109.57000
 30
 0
 11
22.99500
 21
109.57000
  0
LINE
  8
Gravur
 62
   7
 39
0.200
  6
CONTINUOUS
 10
22.99500
 20
109.57000
 30
 0
 11
23.26700
 21
109.57000
  0
LINE
  8
Gravur
 62
   7
 39
0.200
  6
CONTINUOUS
 10
23.26700
 20
109.57000
 30
 0
 11
23.26700
 21
107.87000
  0
ARC
  8
Gravur
 62
   7
 39
0.200
  6
CONTINUOUS
 10
24.59099
 20
109.98001
 30
 0
 40
0.33800
 50
89.65996
 51
180.34004
  0
LINE
  8
Gravur
 62
   7
 39
0.200
  6
CONTINUOUS
 10
24.25300
 20
109.97800
 30
 0
 11
24.25300
 21
109.57000
  0
LINE
  8
Gravur
 62
   7
 39
0.200
  6
CONTINUOUS
 10
24.25300
 20
109.57000
 30
 0
 11
24.59300
 21
109.57000
  0
LINE
  8
Gravur
 62
   7
 39
0.200
  6
CONTINUOUS
 10
24.59300
 20
109.57000
 30
 0
 11
23.98100
 21
109.57000
  0
LINE
  8
Gravur
 62
   7
 39
0.200
  6
CONTINUOUS
 10
23.98100
 20
109.57000
 30
 0
 11
24.25300
 21
109.57000
  0
LINE
  8
Gravur
 62
   7
 39
0.200
  6
CONTINUOUS
 10
24.25300
 20
109.57000
 30
 0
 11
24.25300
 21
107.87000
  0
ARC
  8
Gravur
 62
   7
 39
0.200
  6
CONTINUOUS
 10
25.30895
 20
108.28369
 30
 0
 40
0.34200
 50
-179.04604
 51
-134.55678
  0
ARC
  8
Gravur
 62
   7
 39
0.200
  6
CONTINUOUS
 10
25.60234
 20
108.57297
 30
 0
 40
0.75400
 50
-135.01990
 51
-90.48205
  0
LINE
  8
Gravur
 62
   7
 39
0.200
  6
CONTINUOUS
 10
25.59600
 20
107.81900
 30
 0
 11
25.66400
 21
107.81900
  0
ARC
  8
Gravur
 62
   7
 39
0.200
  6
CONTINUOUS
 10
25.65766
 20
108.57297
 30
 0
 40
0.75400
 50
-89.51795
 51
-44.98010
  0
ARC
  8
Gravur
 62
   7
 39
0.200
  6
CONTINUOUS
 10
25.93059
 20
108.30002
 30
 0
 40
0.36800
 50
-44.95772
 51
73.03020
  0
LINE
  8
Gravur
 62
   7
 39
0.200
  6
CONTINUOUS
 10
26.03800
 20
108.65200
 30
 0
 11
25.29000
 21
108.85600
  0
ARC
  8
Gravur
 62
   7
 39
0.200
  6
CONTINUOUS
 10
25.39496
 20
109.18570
 30
 0
 40
0.34600
 50
134.13995
 51
-107.65891
  0
ARC
  8
Gravur
 62
   7
 39
0.200
  6
CONTINUOUS
 10
25.57409
 20
109.00002
 30
 0
 40
0.60400
 50
449.53442
 51
134.06840
  0
LINE
  8
Gravur
 62
   7
 39
0.200
  6
CONTINUOUS
 10
25.57900
 20
109.60400
 30
 0
 11
25.64700
 21
109.60400
  0
ARC
  8
Gravur
 62
   7
 39
0.200
  6
CONTINUOUS
 10
25.64447
 20
108.98701
 30
 0
 40
0.61700
 50
379.79936
 51
89.76545
  0
LINE
  8
Gravur
 62
   7
 39
0.200
  6
CONTINUOUS
 10
26.68400
 20
108.77100
 30
 0
 11
28.18000
 21
108.77100
  0
LINE
  8
Gravur
 62
   7
 39
0.200
  6
CONTINUOUS
 10
28.18000
 20
108.77100
 30
 0
 11
28.18000
 21
108.90700
  0
ARC
  8
Gravur
 62
   7
 39
0.200
  6
CONTINUOUS
 10
27.43400
 20
108.90436
 30
 0
 40
0.74600
 50
0.20252
 51
169.28988
  0
ARC
  8
Gravur
 62
   7
 39
0.200
  6
CONTINUOUS
 10
28.17250
 20
108.76250
 30
 0
 40
1.49800
 50
169.20768
 51
190.79232
  0
ARC
  8
Gravur
 62
   7
 39
0.200
  6
CONTINUOUS
 10
27.49838
 20
108.63000
 30
 0
 40
0.81100
 50
-169.48524
 51
-89.88567
  0
ARC
  8
Gravur
 62
   7
 39
0.200
  6
CONTINUOUS
 10
27.49761
 20
108.64000
 30
 0
 40
0.82100
 50
-89.83333
 51
-31.58395
  0
LINE
  8
Gravur
 62
   7
 39
0.200
  6
CONTINUOUS
 10
28.57100
 20
109.63800
 30
 0
 11
29.18300
 21
109.63800
  0
LINE
  8
Gravur
 62
   7
 39
0.200
  6
CONTINUOUS
 10
29.18300
 20
109.63800
 30
 0
 11
28.84300
 21
109.63800
  0
LINE
  8
Gravur
 62
   7
 39
0.200
  6
CONTINUOUS
 10
28.84300
 20
109.63800
 30
 0
 11
28.84300
 21
110.18200
  0
LINE
  8
Gravur
 62
   7
 39
0.200
  6
CONTINUOUS
 10
28.84300
 20
110.18200
 30
 0
 11
28.84300
 21
108.21000
  0
ARC
  8
Gravur
 62
   7
 39
0.200
  6
CONTINUOUS
 10
29.18099
 20
108.20799
 30
 0
 40
0.33800
 50
179.65996
 51
270.34004
  0
LINE
  8
Gravur
 62
   7
 39
0.200
  6
CONTINUOUS
 10
15.20600
 20
38.99100
 30
 0
 11
12.70600
 21
43.32100
  0
LINE
  8
Gravur
 62
   7
 39
0.200
  6
CONTINUOUS
 10
15.21800
 20
39.00400
 30
 0
 11
17.71800
 21
43.33400
  0
LINE
  8
Gravur
 62
   7
 39
0.200
  6
CONTINUOUS
 10
17.72400
 20
43.35100
 30
 0
 11
12.72400
 21
43.35100
  0
LINE
  8
Gravur
 62
   7
 39
0.200
  6
CONTINUOUS
 10
15.26400
 20
82.36400
 30
 0
 11
17.76400
 21
78.03400
  0
LINE
  8
Gravur
 62
   7
 39
0.200
  6
CONTINUOUS
 10
15.25200
 20
82.35100
 30
 0
 11
12.75200
 21
78.02100
  0
LINE
  8
Gravur
 62
   7
 39
0.200
  6
CONTINUOUS
 10
12.74600
 20
78.00400
 30
 0
 11
17.74600
 21
78.00400
  0
ARC
  8
Kontur
 62
   7
 39
0.200
  6
CONTINUOUS
 10
5.61193
 20
3.65000
 30
 0
 40
1.00000
 50
449.99581
 51
160.54904
  0
LINE
  8
Kontur
 62
   7
 39
0.200
  6
CONTINUOUS
 10
5.61200
 20
4.65000
 30
 0
 11
9.28800
 21
4.65000
  0
ARC
  8
Kontur
 62
   7
 39
0.200
  6
CONTINUOUS
 10
9.28807
 20
3.65000
 30
 0
 40
1.00000
 50
379.45096
 51
90.00419
  0
ARC
  8
Kontur
 62
   7
 39
0.200
  6
CONTINUOUS
 10
7.44960
 20
3.00000
 30
 0
 40
2.95000
 50
340.53565
 51
19.46435
  0
ARC
  8
Kontur
 62
   7
 39
0.200
  6
CONTINUOUS
 10
9.28807
 20
2.35000
 30
 0
 40
1.00000
 50
269.99581
 51
-19.45096
  0
LINE
  8
Kontur
 62
   7
 39
0.200
  6
CONTINUOUS
 10
9.28800
 20
1.35000
 30
 0
 11
5.61200
 21
1.35000
  0
ARC
  8
Kontur
 62
   7
 39
0.200
  6
CONTINUOUS
 10
5.61193
 20
2.35000
 30
 0
 40
1.00000
 50
199.45096
 51
-89.99581
  0
ARC
  8
Kontur
 62
   7
 39
0.200
  6
CONTINUOUS
 10
7.45040
 20
3.00000
 30
 0
 40
2.95000
 50
160.53565
 51
-160.53565
  0
ARC
  8
Kontur
 62
   7
 39
0.200
  6
CONTINUOUS
 10
5.61193
 20
126.05000
 30
 0
 40
1.00000
 50
449.99581
 51
160.54904
  0
LINE
  8
Kontur
 62
   7
 39
0.200
  6
CONTINUOUS
 10
5.61200
 20
127.05000
 30
 0
 11
9.28800
 21
127.05000
  0
ARC
  8
Kontur
 62
   7
 39
0.200
  6
CONTINUOUS
 10
9.28807
 20
126.05000
 30
 0
 40
1.00000
 50
379.45096
 51
90.00419
  0
ARC
  8
Kontur
 62
   7
 39
0.200
  6
CONTINUOUS
 10
7.44960
 20
125.40000
 30
 0
 40
2.95000
 50
340.53565
 51
19.46435
  0
ARC
  8
Kontur
 62
   7
 39
0.200
  6
CONTINUOUS
 10
9.28807
 20
124.75000
 30
 0
 40
1.00000
 50
269.99581
 51
-19.45096
  0
LINE
  8
Kontur
 62
   7
 39
0.200
  6
CONTINUOUS
 10
9.28800
 20
123.75000
 30
 0
 11
5.61200
 21
123.75000
  0
ARC
  8
Kontur
 62
   7
 39
0.200
  6
CONTINUOUS
 10
5.61193
 20
124.75000
 30
 0
 40
1.00000
 50
199.45096
 51
-89.99581
  0
ARC
  8
Kontur
 62
   7
 39
0.200
  6
CONTINUOUS
 10
7.45040
 20
125.40000
 30
 0
 40
2.95000
 50
160.53565
 51
-160.53565
  0
CIRCLE
  8
Kontur
 62
   7
 39
0.200
  6
CONTINUOUS
 10
7.57000
 20
109.12000
 30
 0
 40
3.00000
  0
CIRCLE
  8
Kontur
 62
   7
 39
0.200
  6
CONTINUOUS
 10
7.57000
 20
109.12000
 30
 0
 40
1.60000
  0
ARC
  8
Kontur
 62
   7
 39
0.200
  6
CONTINUOUS
 10
41.17193
 20
3.65000
 30
 0
 40
1.00000
 50
449.99581
 51
160.54904
  0
LINE
  8
Kontur
 62
   7
 39
0.200
  6
CONTINUOUS
 10
41.17200
 20
4.65000
 30
 0
 11
44.84800
 21
4.65000
  0
ARC
  8
Kontur
 62
   7
 39
0.200
  6
CONTINUOUS
 10
44.84807
 20
3.65000
 30
 0
 40
1.00000
 50
379.45096
 51
90.00419
  0
ARC
  8
Kontur
 62
   7
 39
0.200
  6
CONTINUOUS
 10
43.00960
 20
3.00000
 30
 0
 40
2.95000
 50
340.53565
 51
19.46435
  0
ARC
  8
Kontur
 62
   7
 39
0.200
  6
CONTINUOUS
 10
44.84807
 20
2.35000
 30
 0
 40
1.00000
 50
269.99581
 51
-19.45096
  0
LINE
  8
Kontur
 62
   7
 39
0.200
  6
CONTINUOUS
 10
44.84800
 20
1.35000
 30
 0
 11
41.17200
 21
1.35000
  0
ARC
  8
Kontur
 62
   7
 39
0.200
  6
CONTINUOUS
 10
41.17193
 20
2.35000
 30
 0
 40
1.00000
 50
199.45096
 51
-89.99581
  0
ARC
  8
Kontur
 62
   7
 39
0.200
  6
CONTINUOUS
 10
43.01040
 20
3.00000
 30
 0
 40
2.95000
 50
160.53565
 51
-160.53565
  0
ARC
  8
Kontur
 62
   7
 39
0.200
  6
CONTINUOUS
 10
41.17193
 20
126.05000
 30
 0
 40
1.00000
 50
449.99581
 51
160.54904
  0
LINE
  8
Kontur
 62
   7
 39
0.200
  6
CONTINUOUS
 10
41.17200
 20
127.05000
 30
 0
 11
44.84800
 21
127.05000
  0
ARC
  8
Kontur
 62
   7
 39
0.200
  6
CONTINUOUS
 10
44.84807
 20
126.05000
 30
 0
 40
1.00000
 50
379.45096
 51
90.00419
  0
ARC
  8
Kontur
 62
   7
 39
0.200
  6
CONTINUOUS
 10
43.00960
 20
125.40000
 30
 0
 40
2.95000
 50
340.53565
 51
19.46435
  0
ARC
  8
Kontur
 62
   7
 39
0.200
  6
CONTINUOUS
 10
44.84807
 20
124.75000
 30
 0
 40
1.00000
 50
269.99581
 51
-19.45096
  0
LINE
  8
Kontur
 62
   7
 39
0.200
  6
CONTINUOUS
 10
44.84800
 20
123.75000
 30
 0
 11
41.17200
 21
123.75000
  0
ARC
  8
Kontur
 62
   7
 39
0.200
  6
CONTINUOUS
 10
41.17193
 20
124.75000
 30
 0
 40
1.00000
 50
199.45096
 51
-89.99581
  0
ARC
  8
Kontur
 62
   7
 39
0.200
  6
CONTINUOUS
 10
43.01040
 20
125.40000
 30
 0
 40
2.95000
 50
160.53565
 51
-160.53565
  0
CIRCLE
  8
Kontur
 62
   7
 39
0.200
  6
CONTINUOUS
 10
7.57000
 20
17.68000
 30
 0
 40
3.00000
  0
CIRCLE
  8
Kontur
 62
   7
 39
0.200
  6
CONTINUOUS
 10
7.57000
 20
17.68000
 30
 0
 40
1.60000
  0
CIRCLE
  8
Kontur
 62
   7
 39
0.200
  6
CONTINUOUS
 10
15.19000
 20
71.02000
 30
 0
 40
4.50000
  0
ARC
  8
Kontur
 62
   7
 39
0.200
  6
CONTINUOUS
 10
40.85000
 20
98.38000
 30
 0
 40
1.50000
 50
360.00000
 51
90.00000
  0
LINE
  8
Kontur
 62
   7
 39
0.200
  6
CONTINUOUS
 10
42.35000
 20
98.38000
 30
 0
 11
42.35000
 21
89.38000
  0
ARC
  8
Kontur
 62
   7
 39
0.200
  6
CONTINUOUS
 10
40.85000
 20
89.38000
 30
 0
 40
1.50000
 50
270.00000
 51
0.00000
  0
LINE
  8
Kontur
 62
   7
 39
0.200
  6
CONTINUOUS
 10
40.85000
 20
87.88000
 30
 0
 11
9.85000
 21
87.88000
  0
ARC
  8
Kontur
 62
   7
 39
0.200
  6
CONTINUOUS
 10
9.85000
 20
89.38000
 30
 0
 40
1.50000
 50
180.00000
 51
-90.00000
  0
LINE
  8
Kontur
 62
   7
 39
0.200
  6
CONTINUOUS
 10
8.35000
 20
89.38000
 30
 0
 11
8.35000
 21
98.38000
  0
ARC
  8
Kontur
 62
   7
 39
0.200
  6
CONTINUOUS
 10
9.85000
 20
98.38000
 30
 0
 40
1.50000
 50
450.00000
 51
180.00000
  0
LINE
  8
Kontur
 62
   7
 39
0.200
  6
CONTINUOUS
 10
9.85000
 20
99.88000
 30
 0
 11
40.85000
 21
99.88000
  0
CIRCLE
  8
Kontur
 62
   7
 39
0.200
  6
CONTINUOUS
 10
15.19000
 20
60.86000
 30
 0
 40
1.50000
  0
CIRCLE
  8
Kontur
 62
   7
 39
0.200
  6
CONTINUOUS
 10
34.24100
 20
60.86000
 30
 0
 40
4.50000
  0
CIRCLE
  8
Kontur
 62
   7
 39
0.200
  6
CONTINUOUS
 10
15.19100
 20
50.70000
 30
 0
 40
4.50000
  0
CIRCLE
  8
Kontur
 62
   7
 39
0.200
  6
CONTINUOUS
 10
16.46000
 20
109.12000
 30
 0
 40
1.50000
  0
CIRCLE
  8
Kontur
 62
   7
 39
0.200
  6
CONTINUOUS
 10
43.13000
 20
109.12000
 30
 0
 40
3.00000
  0
CIRCLE
  8
Kontur
 62
   7
 39
0.200
  6
CONTINUOUS
 10
43.13000
 20
109.12000
 30
 0
 40
1.60000
  0
CIRCLE
  8
Kontur
 62
   7
 39
0.200
  6
CONTINUOUS
 10
43.13000
 20
17.68000
 30
 0
 40
3.00000
  0
CIRCLE
  8
Kontur
 62
   7
 39
0.200
  6
CONTINUOUS
 10
43.13000
 20
17.68000
 30
 0
 40
1.60000
  0
CIRCLE
  8
Kontur
 62
   7
 39
0.200
  6
CONTINUOUS
 10
25.40000
 20
25.40000
 30
 0
 40
3.75000
  0
ENDSEC
  0
EOF
