  0
SECTION
  2
HEADER
  0
ENDSEC
  0
SECTION
  2
TABLES
  0
TABLE
  2
LTYPE
 70
     1
  0
LTYPE
  2
CONTINUOUS
 70
    64
  3
Ausgezogene Linie
 72
    65
 73
     0
 40
0.0
  0
ENDTAB
  0
TABLE
  2
LAYER
 70
     3
  0
LAYER
  2
Kontur
 70
    64
 62
     7
  6
CONTINUOUS
  0
LAYER
  2
Gravur
 70
    64
 62
     7
  6
CONTINUOUS
  0
LAYER
  2
Bezugspunkte
 70
    64
 62
     1
  6
CONTINUOUS
  0
ENDTAB
  0
TABLE
  2
STYLE
 70
     1
  0
STYLE
  2
TXT
 70
    64
 40
0.0
 41
1.0
 50
0.0
 71
     0
 42
3.500000
  3
TXT
  0
ENDTAB
  0
ENDSEC
  0
SECTION
  2
BLOCKS
  0
ENDSEC
  0
SECTION
  2
ENTITIES
  0
LINE
  8
Kontur
 62
   7
 39
0.100
  6
CONTINUOUS
 10
25.23000
 20
128.40000
 30
 0
 11
0.00000
 21
128.40000
  0
LINE
  8
Kontur
 62
   7
 39
0.100
  6
CONTINUOUS
 10
0.00000
 20
128.40000
 30
 0
 11
0.00000
 21
128.40000
  0
LINE
  8
Kontur
 62
   7
 39
0.100
  6
CONTINUOUS
 10
0.00000
 20
128.40000
 30
 0
 11
0.00000
 21
0.00000
  0
LINE
  8
Kontur
 62
   7
 39
0.100
  6
CONTINUOUS
 10
0.00000
 20
0.00000
 30
 0
 11
0.00000
 21
0.00000
  0
LINE
  8
Kontur
 62
   7
 39
0.100
  6
CONTINUOUS
 10
0.00000
 20
0.00000
 30
 0
 11
50.46000
 21
0.00000
  0
LINE
  8
Kontur
 62
   7
 39
0.100
  6
CONTINUOUS
 10
50.46000
 20
0.00000
 30
 0
 11
50.46000
 21
0.00000
  0
LINE
  8
Kontur
 62
   7
 39
0.100
  6
CONTINUOUS
 10
50.46000
 20
0.00000
 30
 0
 11
50.46000
 21
128.40000
  0
LINE
  8
Kontur
 62
   7
 39
0.100
  6
CONTINUOUS
 10
50.46000
 20
128.40000
 30
 0
 11
50.46000
 21
128.40000
  0
LINE
  8
Kontur
 62
   7
 39
0.100
  6
CONTINUOUS
 10
50.46000
 20
128.40000
 30
 0
 11
25.23000
 21
128.40000
  0
LINE
  8
Gravur
 62
   7
 39
0.200
  6
CONTINUOUS
 10
14.02800
 20
116.45600
 30
 0
 11
14.86000
 21
116.45600
  0
ARC
  8
Gravur
 62
   7
 39
0.200
  6
CONTINUOUS
 10
11.45968
 20
116.27757
 30
 0
 40
3.40500
 50
3.00385
 51
8.41734
  0
ARC
  8
Gravur
 62
   7
 39
0.200
  6
CONTINUOUS
 10
14.22271
 20
116.74671
 30
 0
 40
0.60600
 50
2.77053
 51
87.22947
  0
ARC
  8
Gravur
 62
   7
 39
0.200
  6
CONTINUOUS
 10
13.26000
 20
96.36643
 30
 0
 40
21.00900
 50
87.29361
 51
92.70639
  0
ARC
  8
Gravur
 62
   7
 39
0.200
  6
CONTINUOUS
 10
12.31387
 20
116.76379
 30
 0
 40
0.59000
 50
94.45935
 51
178.81380
  0
ARC
  8
Gravur
 62
   7
 39
0.200
  6
CONTINUOUS
 10
23.23215
 20
116.23200
 30
 0
 40
11.52100
 50
177.29359
 51
182.70641
  0
ARC
  8
Gravur
 62
   7
 39
0.200
  6
CONTINUOUS
 10
12.31387
 20
115.70021
 30
 0
 40
0.59000
 50
-178.81380
 51
-94.45935
  0
ARC
  8
Gravur
 62
   7
 39
0.200
  6
CONTINUOUS
 10
13.26000
 20
136.09757
 30
 0
 40
21.00900
 50
-92.70639
 51
-87.29361
  0
ARC
  8
Gravur
 62
   7
 39
0.200
  6
CONTINUOUS
 10
14.22271
 20
115.71729
 30
 0
 40
0.60600
 50
-87.22947
 51
-2.77053
  0
ARC
  8
Gravur
 62
   7
 39
0.200
  6
CONTINUOUS
 10
11.45968
 20
116.18643
 30
 0
 40
3.40500
 50
-8.41734
 51
-3.00385
  0
LINE
  8
Gravur
 62
   7
 39
0.200
  6
CONTINUOUS
 10
14.86000
 20
116.00800
 30
 0
 11
14.02800
 21
116.00800
  0
ARC
  8
Gravur
 62
   7
 39
0.200
  6
CONTINUOUS
 10
13.74618
 20
116.03382
 30
 0
 40
0.28300
 50
275.23470
 51
-5.23470
  0
ARC
  8
Gravur
 62
   7
 39
0.200
  6
CONTINUOUS
 10
13.24400
 20
121.32705
 30
 0
 40
5.60000
 50
264.58979
 51
-84.58979
  0
ARC
  8
Gravur
 62
   7
 39
0.200
  6
CONTINUOUS
 10
12.73802
 20
115.99802
 30
 0
 40
0.24700
 50
185.11395
 51
-95.11395
  0
ARC
  8
Gravur
 62
   7
 39
0.200
  6
CONTINUOUS
 10
15.19490
 20
116.23200
 30
 0
 40
2.71500
 50
174.58949
 51
-174.58949
  0
ARC
  8
Gravur
 62
   7
 39
0.200
  6
CONTINUOUS
 10
12.73802
 20
116.46598
 30
 0
 40
0.24700
 50
455.11395
 51
174.88605
  0
ARC
  8
Gravur
 62
   7
 39
0.200
  6
CONTINUOUS
 10
13.24400
 20
111.13695
 30
 0
 40
5.60000
 50
444.58979
 51
95.41021
  0
ARC
  8
Gravur
 62
   7
 39
0.200
  6
CONTINUOUS
 10
13.74618
 20
116.43018
 30
 0
 40
0.28300
 50
365.23470
 51
84.76530
  0
LINE
  8
Gravur
 62
   7
 39
0.200
  6
CONTINUOUS
 10
16.20400
 20
118.31200
 30
 0
 11
17.10000
 21
118.31200
  0
LINE
  8
Gravur
 62
   7
 39
0.200
  6
CONTINUOUS
 10
17.10000
 20
118.31200
 30
 0
 11
16.46000
 21
117.67200
  0
LINE
  8
Gravur
 62
   7
 39
0.200
  6
CONTINUOUS
 10
16.46000
 20
117.67200
 30
 0
 11
15.82000
 21
117.67200
  0
LINE
  8
Gravur
 62
   7
 39
0.200
  6
CONTINUOUS
 10
15.82000
 20
117.67200
 30
 0
 11
16.20400
 21
118.31200
  0
LINE
  8
Gravur
 62
   7
 39
0.200
  6
CONTINUOUS
 10
18.44400
 20
117.86400
 30
 0
 11
19.27600
 21
117.86400
  0
LINE
  8
Gravur
 62
   7
 39
0.200
  6
CONTINUOUS
 10
19.27600
 20
117.86400
 30
 0
 11
19.27600
 21
117.35200
  0
LINE
  8
Gravur
 62
   7
 39
0.200
  6
CONTINUOUS
 10
19.27600
 20
117.35200
 30
 0
 11
20.62000
 21
117.35200
  0
LINE
  8
Gravur
 62
   7
 39
0.200
  6
CONTINUOUS
 10
20.62000
 20
117.35200
 30
 0
 11
20.62000
 21
116.77600
  0
LINE
  8
Gravur
 62
   7
 39
0.200
  6
CONTINUOUS
 10
20.62000
 20
116.77600
 30
 0
 11
19.27600
 21
116.77600
  0
LINE
  8
Gravur
 62
   7
 39
0.200
  6
CONTINUOUS
 10
19.27600
 20
116.77600
 30
 0
 11
19.27600
 21
116.00800
  0
ARC
  8
Gravur
 62
   7
 39
0.200
  6
CONTINUOUS
 10
19.53300
 20
116.00687
 30
 0
 40
0.25700
 50
179.74871
 51
262.62314
  0
ARC
  8
Gravur
 62
   7
 39
0.200
  6
CONTINUOUS
 10
19.59600
 20
116.51095
 30
 0
 40
0.76500
 50
-97.20906
 51
-82.79094
  0
ARC
  8
Gravur
 62
   7
 39
0.200
  6
CONTINUOUS
 10
19.65900
 20
116.00687
 30
 0
 40
0.25700
 50
-82.62314
 51
0.25129
  0
LINE
  8
Gravur
 62
   7
 39
0.200
  6
CONTINUOUS
 10
19.91600
 20
116.00800
 30
 0
 11
19.91600
 21
116.13600
  0
LINE
  8
Gravur
 62
   7
 39
0.200
  6
CONTINUOUS
 10
19.91600
 20
116.13600
 30
 0
 11
20.74800
 21
116.13600
  0
LINE
  8
Gravur
 62
   7
 39
0.200
  6
CONTINUOUS
 10
20.74800
 20
116.13600
 30
 0
 11
20.74800
 21
115.75200
  0
ARC
  8
Gravur
 62
   7
 39
0.200
  6
CONTINUOUS
 10
20.11001
 20
115.74929
 30
 0
 40
0.63800
 50
272.69464
 51
0.24296
  0
ARC
  8
Gravur
 62
   7
 39
0.200
  6
CONTINUOUS
 10
19.59600
 20
126.62015
 30
 0
 40
11.52100
 50
267.29359
 51
-87.29359
  0
ARC
  8
Gravur
 62
   7
 39
0.200
  6
CONTINUOUS
 10
19.08199
 20
115.74929
 30
 0
 40
0.63800
 50
179.75704
 51
-92.69464
  0
LINE
  8
Gravur
 62
   7
 39
0.200
  6
CONTINUOUS
 10
18.44400
 20
115.75200
 30
 0
 11
18.44400
 21
116.77600
  0
LINE
  8
Gravur
 62
   7
 39
0.200
  6
CONTINUOUS
 10
18.44400
 20
116.77600
 30
 0
 11
18.06000
 21
116.77600
  0
LINE
  8
Gravur
 62
   7
 39
0.200
  6
CONTINUOUS
 10
18.06000
 20
116.77600
 30
 0
 11
18.06000
 21
117.35200
  0
LINE
  8
Gravur
 62
   7
 39
0.200
  6
CONTINUOUS
 10
18.06000
 20
117.35200
 30
 0
 11
18.44400
 21
117.35200
  0
LINE
  8
Gravur
 62
   7
 39
0.200
  6
CONTINUOUS
 10
18.44400
 20
117.35200
 30
 0
 11
18.44400
 21
117.86400
  0
LINE
  8
Gravur
 62
   7
 39
0.200
  6
CONTINUOUS
 10
25.48400
 20
117.60800
 30
 0
 11
25.48400
 21
115.81600
  0
LINE
  8
Gravur
 62
   7
 39
0.200
  6
CONTINUOUS
 10
25.48400
 20
115.81600
 30
 0
 11
27.46800
 21
115.81600
  0
ARC
  8
Gravur
 62
   7
 39
0.200
  6
CONTINUOUS
 10
27.47001
 20
116.19799
 30
 0
 40
0.38200
 50
-90.30077
 51
0.30077
  0
LINE
  8
Gravur
 62
   7
 39
0.200
  6
CONTINUOUS
 10
27.85200
 20
116.20000
 30
 0
 11
27.85200
 21
117.22400
  0
ARC
  8
Gravur
 62
   7
 39
0.200
  6
CONTINUOUS
 10
27.47001
 20
117.22601
 30
 0
 40
0.38200
 50
-0.30077
 51
90.30077
  0
LINE
  8
Gravur
 62
   7
 39
0.200
  6
CONTINUOUS
 10
27.46800
 20
117.60800
 30
 0
 11
25.48400
 21
117.60800
  0
LINE
  8
Gravur
 62
   7
 39
0.200
  6
CONTINUOUS
 10
24.58800
 20
118.31200
 30
 0
 11
24.58800
 21
115.11200
  0
LINE
  8
Gravur
 62
   7
 39
0.200
  6
CONTINUOUS
 10
24.58800
 20
115.11200
 30
 0
 11
28.04400
 21
115.11200
  0
ARC
  8
Gravur
 62
   7
 39
0.200
  6
CONTINUOUS
 10
28.04801
 20
115.81199
 30
 0
 40
0.70000
 50
-90.32835
 51
0.32835
  0
LINE
  8
Gravur
 62
   7
 39
0.200
  6
CONTINUOUS
 10
28.74800
 20
115.81600
 30
 0
 11
28.74800
 21
117.60800
  0
ARC
  8
Gravur
 62
   7
 39
0.200
  6
CONTINUOUS
 10
28.04100
 20
117.60560
 30
 0
 40
0.70700
 50
0.19489
 51
92.35117
  0
LINE
  8
Gravur
 62
   7
 39
0.200
  6
CONTINUOUS
 10
28.01200
 20
118.31200
 30
 0
 11
24.58800
 21
118.31200
  0
LINE
  8
Gravur
 62
   7
 39
0.200
  6
CONTINUOUS
 10
32.97200
 20
117.19200
 30
 0
 11
33.86800
 21
117.19200
  0
LINE
  8
Gravur
 62
   7
 39
0.200
  6
CONTINUOUS
 10
33.86800
 20
117.19200
 30
 0
 11
33.86800
 21
117.57600
  0
ARC
  8
Gravur
 62
   7
 39
0.200
  6
CONTINUOUS
 10
33.16000
 20
117.57527
 30
 0
 40
0.70800
 50
0.05883
 51
84.48855
  0
ARC
  8
Gravur
 62
   7
 39
0.200
  6
CONTINUOUS
 10
31.78800
 20
103.07403
 30
 0
 40
15.27400
 50
84.59024
 51
95.40976
  0
ARC
  8
Gravur
 62
   7
 39
0.200
  6
CONTINUOUS
 10
30.41600
 20
117.57527
 30
 0
 40
0.70800
 50
95.51145
 51
179.94117
  0
LINE
  8
Gravur
 62
   7
 39
0.200
  6
CONTINUOUS
 10
29.70800
 20
117.57600
 30
 0
 11
29.70800
 21
115.81600
  0
ARC
  8
Gravur
 62
   7
 39
0.200
  6
CONTINUOUS
 10
30.39879
 20
115.83313
 30
 0
 40
0.69100
 50
-178.57940
 51
-94.21497
  0
ARC
  8
Gravur
 62
   7
 39
0.200
  6
CONTINUOUS
 10
31.78800
 20
130.34997
 30
 0
 40
15.27400
 50
-95.40976
 51
-84.59024
  0
ARC
  8
Gravur
 62
   7
 39
0.200
  6
CONTINUOUS
 10
33.17721
 20
115.83313
 30
 0
 40
0.69100
 50
-85.78503
 51
-1.42060
  0
LINE
  8
Gravur
 62
   7
 39
0.200
  6
CONTINUOUS
 10
33.86800
 20
115.81600
 30
 0
 11
33.86800
 21
116.39200
  0
LINE
  8
Gravur
 62
   7
 39
0.200
  6
CONTINUOUS
 10
33.86800
 20
116.39200
 30
 0
 11
32.97200
 21
116.39200
  0
LINE
  8
Gravur
 62
   7
 39
0.200
  6
CONTINUOUS
 10
32.97200
 20
116.39200
 30
 0
 11
32.97200
 21
116.23200
  0
ARC
  8
Gravur
 62
   7
 39
0.200
  6
CONTINUOUS
 10
32.58401
 20
116.23433
 30
 0
 40
0.38800
 50
275.32273
 51
-0.34362
  0
ARC
  8
Gravur
 62
   7
 39
0.200
  6
CONTINUOUS
 10
31.78800
 20
124.63369
 30
 0
 40
8.82500
 50
264.59026
 51
-84.59026
  0
ARC
  8
Gravur
 62
   7
 39
0.200
  6
CONTINUOUS
 10
30.99199
 20
116.23433
 30
 0
 40
0.38800
 50
180.34362
 51
-95.32273
  0
LINE
  8
Gravur
 62
   7
 39
0.200
  6
CONTINUOUS
 10
30.60400
 20
116.23200
 30
 0
 11
30.60400
 21
117.19200
  0
ARC
  8
Gravur
 62
   7
 39
0.200
  6
CONTINUOUS
 10
30.99199
 20
117.18967
 30
 0
 40
0.38800
 50
455.32273
 51
179.65638
  0
ARC
  8
Gravur
 62
   7
 39
0.200
  6
CONTINUOUS
 10
31.78800
 20
108.79031
 30
 0
 40
8.82500
 50
444.59026
 51
95.40974
  0
ARC
  8
Gravur
 62
   7
 39
0.200
  6
CONTINUOUS
 10
32.58401
 20
117.18967
 30
 0
 40
0.38800
 50
360.34362
 51
84.67727
  0
LINE
  8
Gravur
 62
   7
 39
0.200
  6
CONTINUOUS
 10
38.09200
 20
117.19200
 30
 0
 11
38.98800
 21
117.19200
  0
LINE
  8
Gravur
 62
   7
 39
0.200
  6
CONTINUOUS
 10
38.98800
 20
117.19200
 30
 0
 11
38.98800
 21
117.57600
  0
ARC
  8
Gravur
 62
   7
 39
0.200
  6
CONTINUOUS
 10
38.28000
 20
117.57527
 30
 0
 40
0.70800
 50
0.05883
 51
84.48855
  0
ARC
  8
Gravur
 62
   7
 39
0.200
  6
CONTINUOUS
 10
36.90800
 20
103.07403
 30
 0
 40
15.27400
 50
84.59024
 51
95.40976
  0
ARC
  8
Gravur
 62
   7
 39
0.200
  6
CONTINUOUS
 10
35.53600
 20
117.57527
 30
 0
 40
0.70800
 50
95.51145
 51
179.94117
  0
LINE
  8
Gravur
 62
   7
 39
0.200
  6
CONTINUOUS
 10
34.82800
 20
117.57600
 30
 0
 11
34.82800
 21
115.84800
  0
ARC
  8
Gravur
 62
   7
 39
0.200
  6
CONTINUOUS
 10
35.53600
 20
115.84873
 30
 0
 40
0.70800
 50
-179.94117
 51
-95.51145
  0
ARC
  8
Gravur
 62
   7
 39
0.200
  6
CONTINUOUS
 10
36.90800
 20
130.34997
 30
 0
 40
15.27400
 50
-95.40976
 51
-84.59024
  0
ARC
  8
Gravur
 62
   7
 39
0.200
  6
CONTINUOUS
 10
38.28000
 20
115.84873
 30
 0
 40
0.70800
 50
-84.48855
 51
-0.05883
  0
LINE
  8
Gravur
 62
   7
 39
0.200
  6
CONTINUOUS
 10
38.98800
 20
115.84800
 30
 0
 11
38.98800
 21
116.80800
  0
LINE
  8
Gravur
 62
   7
 39
0.200
  6
CONTINUOUS
 10
38.98800
 20
116.80800
 30
 0
 11
36.90800
 21
116.80800
  0
LINE
  8
Gravur
 62
   7
 39
0.200
  6
CONTINUOUS
 10
36.90800
 20
116.80800
 30
 0
 11
36.90800
 21
116.32800
  0
LINE
  8
Gravur
 62
   7
 39
0.200
  6
CONTINUOUS
 10
36.90800
 20
116.32800
 30
 0
 11
38.09200
 21
116.32800
  0
LINE
  8
Gravur
 62
   7
 39
0.200
  6
CONTINUOUS
 10
38.09200
 20
116.32800
 30
 0
 11
38.09200
 21
116.23200
  0
ARC
  8
Gravur
 62
   7
 39
0.200
  6
CONTINUOUS
 10
37.70401
 20
116.23433
 30
 0
 40
0.38800
 50
275.32273
 51
-0.34362
  0
ARC
  8
Gravur
 62
   7
 39
0.200
  6
CONTINUOUS
 10
36.90800
 20
124.63369
 30
 0
 40
8.82500
 50
264.59026
 51
-84.59026
  0
ARC
  8
Gravur
 62
   7
 39
0.200
  6
CONTINUOUS
 10
36.11199
 20
116.23433
 30
 0
 40
0.38800
 50
180.34362
 51
-95.32273
  0
LINE
  8
Gravur
 62
   7
 39
0.200
  6
CONTINUOUS
 10
35.72400
 20
116.23200
 30
 0
 11
35.72400
 21
117.19200
  0
ARC
  8
Gravur
 62
   7
 39
0.200
  6
CONTINUOUS
 10
36.11199
 20
117.18967
 30
 0
 40
0.38800
 50
455.32273
 51
179.65638
  0
ARC
  8
Gravur
 62
   7
 39
0.200
  6
CONTINUOUS
 10
36.90800
 20
108.79031
 30
 0
 40
8.82500
 50
444.59026
 51
95.40974
  0
ARC
  8
Gravur
 62
   7
 39
0.200
  6
CONTINUOUS
 10
37.70401
 20
117.18967
 30
 0
 40
0.38800
 50
360.34362
 51
84.67727
  0
ARC
  8
Gravur
 62
   7
 39
0.200
  6
CONTINUOUS
 10
7.94293
 20
79.27672
 30
 0
 40
0.71100
 50
179.17119
 51
230.63834
  0
ARC
  8
Gravur
 62
   7
 39
0.200
  6
CONTINUOUS
 10
8.29767
 20
79.71519
 30
 0
 40
1.27500
 50
-129.19027
 51
-64.22940
  0
ARC
  8
Gravur
 62
   7
 39
0.200
  6
CONTINUOUS
 10
8.55907
 20
79.21705
 30
 0
 40
0.71300
 50
-65.74236
 51
-0.80741
  0
ARC
  8
Gravur
 62
   7
 39
0.200
  6
CONTINUOUS
 10
8.62500
 20
79.20761
 30
 0
 40
0.64700
 50
-0.05430
 51
73.20036
  0
LINE
  8
Gravur
 62
   7
 39
0.200
  6
CONTINUOUS
 10
8.81200
 20
79.82700
 30
 0
 11
7.69200
 21
80.06700
  0
ARC
  8
Gravur
 62
   7
 39
0.200
  6
CONTINUOUS
 10
7.87900
 20
80.68639
 30
 0
 40
0.64700
 50
179.94570
 51
-106.79964
  0
ARC
  8
Gravur
 62
   7
 39
0.200
  6
CONTINUOUS
 10
7.94493
 20
80.67695
 30
 0
 40
0.71300
 50
474.25764
 51
179.19259
  0
ARC
  8
Gravur
 62
   7
 39
0.200
  6
CONTINUOUS
 10
8.20633
 20
80.17881
 30
 0
 40
1.27500
 50
410.80973
 51
115.77060
  0
ARC
  8
Gravur
 62
   7
 39
0.200
  6
CONTINUOUS
 10
8.56107
 20
80.61728
 30
 0
 40
0.71100
 50
359.17119
 51
50.63834
  0
LINE
  8
Gravur
 62
   7
 39
0.200
  6
CONTINUOUS
 10
9.71200
 20
77.68700
 30
 0
 11
9.71200
 21
79.08700
  0
LINE
  8
Gravur
 62
   7
 39
0.200
  6
CONTINUOUS
 10
9.71200
 20
79.08700
 30
 0
 11
9.71200
 21
80.48700
  0
LINE
  8
Gravur
 62
   7
 39
0.200
  6
CONTINUOUS
 10
9.71200
 20
80.48700
 30
 0
 11
9.71200
 21
79.36700
  0
ARC
  8
Gravur
 62
   7
 39
0.200
  6
CONTINUOUS
 10
10.58989
 20
79.35330
 30
 0
 40
0.87800
 50
179.10594
 51
349.08177
  0
ARC
  8
Gravur
 62
   7
 39
0.200
  6
CONTINUOUS
 10
9.72118
 20
79.51700
 30
 0
 40
1.76200
 50
-10.79451
 51
10.79451
  0
ARC
  8
Gravur
 62
   7
 39
0.200
  6
CONTINUOUS
 10
10.58899
 20
79.69097
 30
 0
 40
0.87700
 50
10.24805
 51
180.25955
  0
ARC
  8
Gravur
 62
   7
 39
0.200
  6
CONTINUOUS
 10
12.60553
 20
80.00416
 30
 0
 40
0.56300
 50
451.37688
 51
169.47528
  0
LINE
  8
Gravur
 62
   7
 39
0.200
  6
CONTINUOUS
 10
12.59200
 20
80.56700
 30
 0
 11
12.83200
 21
80.56700
  0
ARC
  8
Gravur
 62
   7
 39
0.200
  6
CONTINUOUS
 10
12.83501
 20
80.01001
 30
 0
 40
0.55700
 50
359.69057
 51
90.30943
  0
LINE
  8
Gravur
 62
   7
 39
0.200
  6
CONTINUOUS
 10
13.39200
 20
80.00700
 30
 0
 11
13.39200
 21
79.20700
  0
ARC
  8
Gravur
 62
   7
 39
0.200
  6
CONTINUOUS
 10
12.44078
 20
79.39694
 30
 0
 40
0.97000
 50
270.66292
 51
-11.29201
  0
ARC
  8
Gravur
 62
   7
 39
0.200
  6
CONTINUOUS
 10
12.44899
 20
78.98399
 30
 0
 40
0.55700
 50
179.69057
 51
-89.69057
  0
ARC
  8
Gravur
 62
   7
 39
0.200
  6
CONTINUOUS
 10
12.37195
 20
78.99371
 30
 0
 40
0.48000
 50
99.58840
 51
-179.19954
  0
LINE
  8
Gravur
 62
   7
 39
0.200
  6
CONTINUOUS
 10
12.29200
 20
79.46700
 30
 0
 11
13.19200
 21
79.62700
  0
ARC
  8
Gravur
 62
   7
 39
0.200
  6
CONTINUOUS
 10
13.15905
 20
79.86473
 30
 0
 40
0.24000
 50
-82.10785
 51
-13.91772
  0
LINE
  8
Gravur
 62
   7
 39
0.200
  6
CONTINUOUS
 10
13.39200
 20
79.80700
 30
 0
 11
13.39200
 21
78.80700
  0
ARC
  8
Gravur
 62
   7
 39
0.200
  6
CONTINUOUS
 10
13.70999
 20
78.80499
 30
 0
 40
0.31800
 50
179.63851
 51
270.36149
  0
LINE
  8
Gravur
 62
   7
 39
0.200
  6
CONTINUOUS
 10
14.15200
 20
80.48700
 30
 0
 11
14.15200
 21
78.48700
  0
LINE
  8
Gravur
 62
   7
 39
0.200
  6
CONTINUOUS
 10
14.15200
 20
78.48700
 30
 0
 11
14.15200
 21
79.68700
  0
ARC
  8
Gravur
 62
   7
 39
0.200
  6
CONTINUOUS
 10
15.02699
 20
79.69201
 30
 0
 40
0.87500
 50
89.67165
 51
-179.67165
  0
ARC
  8
Gravur
 62
   7
 39
0.200
  6
CONTINUOUS
 10
15.03501
 20
79.93001
 30
 0
 40
0.63700
 50
359.72952
 51
90.27048
  0
LINE
  8
Gravur
 62
   7
 39
0.200
  6
CONTINUOUS
 10
15.67200
 20
79.92700
 30
 0
 11
15.67200
 21
78.48700
  0
LINE
  8
Gravur
 62
   7
 39
0.200
  6
CONTINUOUS
 10
16.11200
 20
80.48700
 30
 0
 11
16.11200
 21
78.48700
  0
LINE
  8
Gravur
 62
   7
 39
0.200
  6
CONTINUOUS
 10
16.11200
 20
78.48700
 30
 0
 11
16.11200
 21
79.68700
  0
ARC
  8
Gravur
 62
   7
 39
0.200
  6
CONTINUOUS
 10
16.98699
 20
79.69201
 30
 0
 40
0.87500
 50
89.67165
 51
-179.67165
  0
ARC
  8
Gravur
 62
   7
 39
0.200
  6
CONTINUOUS
 10
16.99501
 20
79.93001
 30
 0
 40
0.63700
 50
359.72952
 51
90.27048
  0
LINE
  8
Gravur
 62
   7
 39
0.200
  6
CONTINUOUS
 10
17.63200
 20
79.92700
 30
 0
 11
17.63200
 21
78.48700
  0
LINE
  8
Gravur
 62
   7
 39
0.200
  6
CONTINUOUS
 10
18.07200
 20
80.48700
 30
 0
 11
18.07200
 21
79.04700
  0
ARC
  8
Gravur
 62
   7
 39
0.200
  6
CONTINUOUS
 10
18.62899
 20
79.04399
 30
 0
 40
0.55700
 50
179.69057
 51
270.30943
  0
ARC
  8
Gravur
 62
   7
 39
0.200
  6
CONTINUOUS
 10
18.63701
 20
79.36199
 30
 0
 40
0.87500
 50
-90.32835
 51
0.32835
  0
LINE
  8
Gravur
 62
   7
 39
0.200
  6
CONTINUOUS
 10
19.51200
 20
79.36700
 30
 0
 11
19.51200
 21
80.48700
  0
LINE
  8
Gravur
 62
   7
 39
0.200
  6
CONTINUOUS
 10
19.51200
 20
80.48700
 30
 0
 11
19.51200
 21
78.48700
  0
LINE
  8
Gravur
 62
   7
 39
0.200
  6
CONTINUOUS
 10
19.95200
 20
80.48700
 30
 0
 11
19.95200
 21
78.48700
  0
LINE
  8
Gravur
 62
   7
 39
0.200
  6
CONTINUOUS
 10
19.95200
 20
78.48700
 30
 0
 11
19.95200
 21
79.68700
  0
ARC
  8
Gravur
 62
   7
 39
0.200
  6
CONTINUOUS
 10
20.82699
 20
79.69201
 30
 0
 40
0.87500
 50
89.67165
 51
-179.67165
  0
ARC
  8
Gravur
 62
   7
 39
0.200
  6
CONTINUOUS
 10
20.83501
 20
79.93001
 30
 0
 40
0.63700
 50
359.72952
 51
90.27048
  0
LINE
  8
Gravur
 62
   7
 39
0.200
  6
CONTINUOUS
 10
21.47200
 20
79.92700
 30
 0
 11
21.47200
 21
78.48700
  0
LINE
  8
Gravur
 62
   7
 39
0.200
  6
CONTINUOUS
 10
23.67200
 20
80.48700
 30
 0
 11
23.67200
 21
79.36700
  0
ARC
  8
Gravur
 62
   7
 39
0.200
  6
CONTINUOUS
 10
22.79411
 20
79.35330
 30
 0
 40
0.87800
 50
190.91823
 51
0.89406
  0
ARC
  8
Gravur
 62
   7
 39
0.200
  6
CONTINUOUS
 10
23.66282
 20
79.51700
 30
 0
 40
1.76200
 50
169.20549
 51
-169.20549
  0
ARC
  8
Gravur
 62
   7
 39
0.200
  6
CONTINUOUS
 10
22.79501
 20
79.69097
 30
 0
 40
0.87700
 50
359.74045
 51
169.75195
  0
LINE
  8
Gravur
 62
   7
 39
0.200
  6
CONTINUOUS
 10
23.67200
 20
79.68700
 30
 0
 11
23.67200
 21
78.40700
  0
ARC
  8
Gravur
 62
   7
 39
0.200
  6
CONTINUOUS
 10
22.95010
 20
78.39492
 30
 0
 40
0.72200
 50
281.33446
 51
0.95879
  0
ARC
  8
Gravur
 62
   7
 39
0.200
  6
CONTINUOUS
 10
22.79200
 20
79.26066
 30
 0
 40
1.60200
 50
259.20673
 51
-79.20673
  0
ARC
  8
Gravur
 62
   7
 39
0.200
  6
CONTINUOUS
 10
22.63377
 20
78.39596
 30
 0
 40
0.72300
 50
210.68547
 51
-101.30790
  0
ARC
  8
Gravur
 62
   7
 39
0.200
  6
CONTINUOUS
 10
10.93293
 20
41.37172
 30
 0
 40
0.71100
 50
179.17119
 51
230.63834
  0
ARC
  8
Gravur
 62
   7
 39
0.200
  6
CONTINUOUS
 10
11.28767
 20
41.81019
 30
 0
 40
1.27500
 50
-129.19027
 51
-64.22940
  0
ARC
  8
Gravur
 62
   7
 39
0.200
  6
CONTINUOUS
 10
11.54907
 20
41.31205
 30
 0
 40
0.71300
 50
-65.74236
 51
-0.80741
  0
ARC
  8
Gravur
 62
   7
 39
0.200
  6
CONTINUOUS
 10
11.61500
 20
41.30261
 30
 0
 40
0.64700
 50
-0.05430
 51
73.20036
  0
LINE
  8
Gravur
 62
   7
 39
0.200
  6
CONTINUOUS
 10
11.80200
 20
41.92200
 30
 0
 11
10.68200
 21
42.16200
  0
ARC
  8
Gravur
 62
   7
 39
0.200
  6
CONTINUOUS
 10
10.86900
 20
42.78139
 30
 0
 40
0.64700
 50
179.94570
 51
-106.79964
  0
ARC
  8
Gravur
 62
   7
 39
0.200
  6
CONTINUOUS
 10
10.93493
 20
42.77195
 30
 0
 40
0.71300
 50
474.25764
 51
179.19259
  0
ARC
  8
Gravur
 62
   7
 39
0.200
  6
CONTINUOUS
 10
11.19633
 20
42.27381
 30
 0
 40
1.27500
 50
410.80973
 51
115.77060
  0
ARC
  8
Gravur
 62
   7
 39
0.200
  6
CONTINUOUS
 10
11.55107
 20
42.71228
 30
 0
 40
0.71100
 50
359.17119
 51
50.63834
  0
LINE
  8
Gravur
 62
   7
 39
0.200
  6
CONTINUOUS
 10
12.70200
 20
42.66200
 30
 0
 11
13.42200
 21
42.66200
  0
LINE
  8
Gravur
 62
   7
 39
0.200
  6
CONTINUOUS
 10
13.42200
 20
42.66200
 30
 0
 11
13.02200
 21
42.66200
  0
LINE
  8
Gravur
 62
   7
 39
0.200
  6
CONTINUOUS
 10
13.02200
 20
42.66200
 30
 0
 11
13.02200
 21
43.30200
  0
LINE
  8
Gravur
 62
   7
 39
0.200
  6
CONTINUOUS
 10
13.02200
 20
43.30200
 30
 0
 11
13.02200
 21
40.98200
  0
ARC
  8
Gravur
 62
   7
 39
0.200
  6
CONTINUOUS
 10
13.41999
 20
40.97999
 30
 0
 40
0.39800
 50
179.71135
 51
270.28865
  0
LINE
  8
Gravur
 62
   7
 39
0.200
  6
CONTINUOUS
 10
13.86200
 20
42.58200
 30
 0
 11
13.86200
 21
40.58200
  0
LINE
  8
Gravur
 62
   7
 39
0.200
  6
CONTINUOUS
 10
13.86200
 20
40.58200
 30
 0
 11
13.86200
 21
41.78200
  0
ARC
  8
Gravur
 62
   7
 39
0.200
  6
CONTINUOUS
 10
14.75499
 20
41.77896
 30
 0
 40
0.89300
 50
458.56495
 51
179.80489
  0
ARC
  8
Gravur
 62
   7
 39
0.200
  6
CONTINUOUS
 10
16.83282
 20
41.63200
 30
 0
 40
1.76200
 50
169.20549
 51
-169.20549
  0
ARC
  8
Gravur
 62
   7
 39
0.200
  6
CONTINUOUS
 10
15.96200
 20
41.79534
 30
 0
 40
0.87600
 50
370.96753
 51
169.03247
  0
ARC
  8
Gravur
 62
   7
 39
0.200
  6
CONTINUOUS
 10
15.09118
 20
41.63200
 30
 0
 40
1.76200
 50
349.20549
 51
10.79451
  0
ARC
  8
Gravur
 62
   7
 39
0.200
  6
CONTINUOUS
 10
15.96200
 20
41.46866
 30
 0
 40
0.87600
 50
190.96753
 51
-10.96753
  0
LINE
  8
Gravur
 62
   7
 39
0.200
  6
CONTINUOUS
 10
17.30200
 20
42.58200
 30
 0
 11
17.30200
 21
40.58200
  0
LINE
  8
Gravur
 62
   7
 39
0.200
  6
CONTINUOUS
 10
17.30200
 20
40.58200
 30
 0
 11
17.30200
 21
41.78200
  0
ARC
  8
Gravur
 62
   7
 39
0.200
  6
CONTINUOUS
 10
18.17699
 20
41.78701
 30
 0
 40
0.87500
 50
89.67165
 51
-179.67165
  0
ARC
  8
Gravur
 62
   7
 39
0.200
  6
CONTINUOUS
 10
18.18501
 20
42.10501
 30
 0
 40
0.55700
 50
359.69057
 51
90.30943
  0
LINE
  8
Gravur
 62
   7
 39
0.200
  6
CONTINUOUS
 10
18.74200
 20
42.10200
 30
 0
 11
18.74200
 21
40.58200
  0
LINE
  8
Gravur
 62
   7
 39
0.200
  6
CONTINUOUS
 10
18.74200
 20
40.58200
 30
 0
 11
18.74200
 21
41.78200
  0
ARC
  8
Gravur
 62
   7
 39
0.200
  6
CONTINUOUS
 10
19.61699
 20
41.78701
 30
 0
 40
0.87500
 50
89.67165
 51
-179.67165
  0
ARC
  8
Gravur
 62
   7
 39
0.200
  6
CONTINUOUS
 10
19.62501
 20
42.10501
 30
 0
 40
0.55700
 50
359.69057
 51
90.30943
  0
LINE
  8
Gravur
 62
   7
 39
0.200
  6
CONTINUOUS
 10
20.18200
 20
42.10200
 30
 0
 11
20.18200
 21
40.58200
  0
LINE
  8
Gravur
 62
   7
 39
0.200
  6
CONTINUOUS
 10
34.26900
 20
105.91900
 30
 0
 11
34.26900
 21
104.47900
  0
LINE
  8
Gravur
 62
   7
 39
0.200
  6
CONTINUOUS
 10
34.26900
 20
104.47900
 30
 0
 11
34.26900
 21
103.03900
  0
LINE
  8
Gravur
 62
   7
 39
0.200
  6
CONTINUOUS
 10
15.33900
 20
105.92000
 30
 0
 11
15.33900
 21
104.08000
  0
ARC
  8
Gravur
 62
   7
 39
0.200
  6
CONTINUOUS
 10
16.37900
 20
104.08000
 30
 0
 40
1.04000
 50
180.00000
 51
360.00000
  0
LINE
  8
Gravur
 62
   7
 39
0.200
  6
CONTINUOUS
 10
17.41900
 20
104.08000
 30
 0
 11
17.41900
 21
105.92000
  0
ARC
  8
Kontur
 62
   7
 39
0.200
  6
CONTINUOUS
 10
5.61193
 20
3.65000
 30
 0
 40
1.00000
 50
449.99581
 51
160.54904
  0
LINE
  8
Kontur
 62
   7
 39
0.200
  6
CONTINUOUS
 10
5.61200
 20
4.65000
 30
 0
 11
9.28800
 21
4.65000
  0
ARC
  8
Kontur
 62
   7
 39
0.200
  6
CONTINUOUS
 10
9.28807
 20
3.65000
 30
 0
 40
1.00000
 50
379.45096
 51
90.00419
  0
ARC
  8
Kontur
 62
   7
 39
0.200
  6
CONTINUOUS
 10
7.44960
 20
3.00000
 30
 0
 40
2.95000
 50
340.53565
 51
19.46435
  0
ARC
  8
Kontur
 62
   7
 39
0.200
  6
CONTINUOUS
 10
9.28807
 20
2.35000
 30
 0
 40
1.00000
 50
269.99581
 51
-19.45096
  0
LINE
  8
Kontur
 62
   7
 39
0.200
  6
CONTINUOUS
 10
9.28800
 20
1.35000
 30
 0
 11
5.61200
 21
1.35000
  0
ARC
  8
Kontur
 62
   7
 39
0.200
  6
CONTINUOUS
 10
5.61193
 20
2.35000
 30
 0
 40
1.00000
 50
199.45096
 51
-89.99581
  0
ARC
  8
Kontur
 62
   7
 39
0.200
  6
CONTINUOUS
 10
7.45040
 20
3.00000
 30
 0
 40
2.95000
 50
160.53565
 51
-160.53565
  0
ARC
  8
Kontur
 62
   7
 39
0.200
  6
CONTINUOUS
 10
5.61193
 20
126.05000
 30
 0
 40
1.00000
 50
449.99581
 51
160.54904
  0
LINE
  8
Kontur
 62
   7
 39
0.200
  6
CONTINUOUS
 10
5.61200
 20
127.05000
 30
 0
 11
9.28800
 21
127.05000
  0
ARC
  8
Kontur
 62
   7
 39
0.200
  6
CONTINUOUS
 10
9.28807
 20
126.05000
 30
 0
 40
1.00000
 50
379.45096
 51
90.00419
  0
ARC
  8
Kontur
 62
   7
 39
0.200
  6
CONTINUOUS
 10
7.44960
 20
125.40000
 30
 0
 40
2.95000
 50
340.53565
 51
19.46435
  0
ARC
  8
Kontur
 62
   7
 39
0.200
  6
CONTINUOUS
 10
9.28807
 20
124.75000
 30
 0
 40
1.00000
 50
269.99581
 51
-19.45096
  0
LINE
  8
Kontur
 62
   7
 39
0.200
  6
CONTINUOUS
 10
9.28800
 20
123.75000
 30
 0
 11
5.61200
 21
123.75000
  0
ARC
  8
Kontur
 62
   7
 39
0.200
  6
CONTINUOUS
 10
5.61193
 20
124.75000
 30
 0
 40
1.00000
 50
199.45096
 51
-89.99581
  0
ARC
  8
Kontur
 62
   7
 39
0.200
  6
CONTINUOUS
 10
7.45040
 20
125.40000
 30
 0
 40
2.95000
 50
160.53565
 51
-160.53565
  0
CIRCLE
  8
Kontur
 62
   7
 39
0.200
  6
CONTINUOUS
 10
7.57000
 20
109.12000
 30
 0
 40
3.00000
  0
CIRCLE
  8
Kontur
 62
   7
 39
0.200
  6
CONTINUOUS
 10
7.57000
 20
109.12000
 30
 0
 40
1.60000
  0
ARC
  8
Kontur
 62
   7
 39
0.200
  6
CONTINUOUS
 10
41.17193
 20
3.65000
 30
 0
 40
1.00000
 50
449.99581
 51
160.54904
  0
LINE
  8
Kontur
 62
   7
 39
0.200
  6
CONTINUOUS
 10
41.17200
 20
4.65000
 30
 0
 11
44.84800
 21
4.65000
  0
ARC
  8
Kontur
 62
   7
 39
0.200
  6
CONTINUOUS
 10
44.84807
 20
3.65000
 30
 0
 40
1.00000
 50
379.45096
 51
90.00419
  0
ARC
  8
Kontur
 62
   7
 39
0.200
  6
CONTINUOUS
 10
43.00960
 20
3.00000
 30
 0
 40
2.95000
 50
340.53565
 51
19.46435
  0
ARC
  8
Kontur
 62
   7
 39
0.200
  6
CONTINUOUS
 10
44.84807
 20
2.35000
 30
 0
 40
1.00000
 50
269.99581
 51
-19.45096
  0
LINE
  8
Kontur
 62
   7
 39
0.200
  6
CONTINUOUS
 10
44.84800
 20
1.35000
 30
 0
 11
41.17200
 21
1.35000
  0
ARC
  8
Kontur
 62
   7
 39
0.200
  6
CONTINUOUS
 10
41.17193
 20
2.35000
 30
 0
 40
1.00000
 50
199.45096
 51
-89.99581
  0
ARC
  8
Kontur
 62
   7
 39
0.200
  6
CONTINUOUS
 10
43.01040
 20
3.00000
 30
 0
 40
2.95000
 50
160.53565
 51
-160.53565
  0
ARC
  8
Kontur
 62
   7
 39
0.200
  6
CONTINUOUS
 10
41.17193
 20
126.05000
 30
 0
 40
1.00000
 50
449.99581
 51
160.54904
  0
LINE
  8
Kontur
 62
   7
 39
0.200
  6
CONTINUOUS
 10
41.17200
 20
127.05000
 30
 0
 11
44.84800
 21
127.05000
  0
ARC
  8
Kontur
 62
   7
 39
0.200
  6
CONTINUOUS
 10
44.84807
 20
126.05000
 30
 0
 40
1.00000
 50
379.45096
 51
90.00419
  0
ARC
  8
Kontur
 62
   7
 39
0.200
  6
CONTINUOUS
 10
43.00960
 20
125.40000
 30
 0
 40
2.95000
 50
340.53565
 51
19.46435
  0
ARC
  8
Kontur
 62
   7
 39
0.200
  6
CONTINUOUS
 10
44.84807
 20
124.75000
 30
 0
 40
1.00000
 50
269.99581
 51
-19.45096
  0
LINE
  8
Kontur
 62
   7
 39
0.200
  6
CONTINUOUS
 10
44.84800
 20
123.75000
 30
 0
 11
41.17200
 21
123.75000
  0
ARC
  8
Kontur
 62
   7
 39
0.200
  6
CONTINUOUS
 10
41.17193
 20
124.75000
 30
 0
 40
1.00000
 50
199.45096
 51
-89.99581
  0
ARC
  8
Kontur
 62
   7
 39
0.200
  6
CONTINUOUS
 10
43.01040
 20
125.40000
 30
 0
 40
2.95000
 50
160.53565
 51
-160.53565
  0
CIRCLE
  8
Kontur
 62
   7
 39
0.200
  6
CONTINUOUS
 10
7.57000
 20
17.68000
 30
 0
 40
3.00000
  0
CIRCLE
  8
Kontur
 62
   7
 39
0.200
  6
CONTINUOUS
 10
7.57000
 20
17.68000
 30
 0
 40
1.60000
  0
CIRCLE
  8
Kontur
 62
   7
 39
0.200
  6
CONTINUOUS
 10
15.19000
 20
71.02000
 30
 0
 40
4.50000
  0
ARC
  8
Kontur
 62
   7
 39
0.200
  6
CONTINUOUS
 10
40.85000
 20
98.38000
 30
 0
 40
1.50000
 50
360.00000
 51
90.00000
  0
LINE
  8
Kontur
 62
   7
 39
0.200
  6
CONTINUOUS
 10
42.35000
 20
98.38000
 30
 0
 11
42.35000
 21
89.38000
  0
ARC
  8
Kontur
 62
   7
 39
0.200
  6
CONTINUOUS
 10
40.85000
 20
89.38000
 30
 0
 40
1.50000
 50
270.00000
 51
0.00000
  0
LINE
  8
Kontur
 62
   7
 39
0.200
  6
CONTINUOUS
 10
40.85000
 20
87.88000
 30
 0
 11
9.85000
 21
87.88000
  0
ARC
  8
Kontur
 62
   7
 39
0.200
  6
CONTINUOUS
 10
9.85000
 20
89.38000
 30
 0
 40
1.50000
 50
180.00000
 51
-90.00000
  0
LINE
  8
Kontur
 62
   7
 39
0.200
  6
CONTINUOUS
 10
8.35000
 20
89.38000
 30
 0
 11
8.35000
 21
98.38000
  0
ARC
  8
Kontur
 62
   7
 39
0.200
  6
CONTINUOUS
 10
9.85000
 20
98.38000
 30
 0
 40
1.50000
 50
450.00000
 51
180.00000
  0
LINE
  8
Kontur
 62
   7
 39
0.200
  6
CONTINUOUS
 10
9.85000
 20
99.88000
 30
 0
 11
40.85000
 21
99.88000
  0
CIRCLE
  8
Kontur
 62
   7
 39
0.200
  6
CONTINUOUS
 10
15.19000
 20
60.86000
 30
 0
 40
1.50000
  0
CIRCLE
  8
Kontur
 62
   7
 39
0.200
  6
CONTINUOUS
 10
34.24100
 20
60.86000
 30
 0
 40
4.50000
  0
CIRCLE
  8
Kontur
 62
   7
 39
0.200
  6
CONTINUOUS
 10
15.19100
 20
50.70000
 30
 0
 40
4.50000
  0
CIRCLE
  8
Kontur
 62
   7
 39
0.200
  6
CONTINUOUS
 10
16.46000
 20
109.12000
 30
 0
 40
1.50000
  0
CIRCLE
  8
Kontur
 62
   7
 39
0.200
  6
CONTINUOUS
 10
34.24000
 20
109.12000
 30
 0
 40
1.50000
  0
CIRCLE
  8
Kontur
 62
   7
 39
0.200
  6
CONTINUOUS
 10
43.13000
 20
109.12000
 30
 0
 40
3.00000
  0
CIRCLE
  8
Kontur
 62
   7
 39
0.200
  6
CONTINUOUS
 10
43.13000
 20
109.12000
 30
 0
 40
1.60000
  0
CIRCLE
  8
Kontur
 62
   7
 39
0.200
  6
CONTINUOUS
 10
43.13000
 20
17.68000
 30
 0
 40
3.00000
  0
CIRCLE
  8
Kontur
 62
   7
 39
0.200
  6
CONTINUOUS
 10
43.13000
 20
17.68000
 30
 0
 40
1.60000
  0
CIRCLE
  8
Kontur
 62
   7
 39
0.200
  6
CONTINUOUS
 10
34.85000
 20
25.30000
 30
 0
 40
3.80000
  0
CIRCLE
  8
Kontur
 62
   7
 39
0.200
  6
CONTINUOUS
 10
15.85000
 20
25.30000
 30
 0
 40
3.80000
  0
ENDSEC
  0
EOF
