  0
SECTION
  2
HEADER
  0
ENDSEC
  0
SECTION
  2
TABLES
  0
TABLE
  2
LTYPE
 70
     1
  0
LTYPE
  2
CONTINUOUS
 70
    64
  3
Ausgezogene Linie
 72
    65
 73
     0
 40
0.0
  0
ENDTAB
  0
TABLE
  2
LAYER
 70
     3
  0
LAYER
  2
Kontur
 70
    64
 62
     7
  6
CONTINUOUS
  0
LAYER
  2
Gravur
 70
    64
 62
     7
  6
CONTINUOUS
  0
LAYER
  2
Bezugspunkte
 70
    64
 62
     1
  6
CONTINUOUS
  0
ENDTAB
  0
TABLE
  2
STYLE
 70
     1
  0
STYLE
  2
TXT
 70
    64
 40
0.0
 41
1.0
 50
0.0
 71
     0
 42
3.500000
  3
TXT
  0
ENDTAB
  0
ENDSEC
  0
SECTION
  2
BLOCKS
  0
ENDSEC
  0
SECTION
  2
ENTITIES
  0
LINE
  8
Kontur
 62
   7
 39
0.100
  6
CONTINUOUS
 10
25.23000
 20
128.40000
 30
 0
 11
0.00000
 21
128.40000
  0
LINE
  8
Kontur
 62
   7
 39
0.100
  6
CONTINUOUS
 10
0.00000
 20
128.40000
 30
 0
 11
0.00000
 21
128.40000
  0
LINE
  8
Kontur
 62
   7
 39
0.100
  6
CONTINUOUS
 10
0.00000
 20
128.40000
 30
 0
 11
0.00000
 21
0.00000
  0
LINE
  8
Kontur
 62
   7
 39
0.100
  6
CONTINUOUS
 10
0.00000
 20
0.00000
 30
 0
 11
0.00000
 21
0.00000
  0
LINE
  8
Kontur
 62
   7
 39
0.100
  6
CONTINUOUS
 10
0.00000
 20
0.00000
 30
 0
 11
50.46000
 21
0.00000
  0
LINE
  8
Kontur
 62
   7
 39
0.100
  6
CONTINUOUS
 10
50.46000
 20
0.00000
 30
 0
 11
50.46000
 21
0.00000
  0
LINE
  8
Kontur
 62
   7
 39
0.100
  6
CONTINUOUS
 10
50.46000
 20
0.00000
 30
 0
 11
50.46000
 21
128.40000
  0
LINE
  8
Kontur
 62
   7
 39
0.100
  6
CONTINUOUS
 10
50.46000
 20
128.40000
 30
 0
 11
50.46000
 21
128.40000
  0
LINE
  8
Kontur
 62
   7
 39
0.100
  6
CONTINUOUS
 10
50.46000
 20
128.40000
 30
 0
 11
25.23000
 21
128.40000
  0
ARC
  8
Kontur
 62
   7
 39
0.100
  6
CONTINUOUS
 10
5.61193
 20
3.65000
 30
 0
 40
1.00000
 50
449.99581
 51
160.54904
  0
LINE
  8
Kontur
 62
   7
 39
0.100
  6
CONTINUOUS
 10
5.61200
 20
4.65000
 30
 0
 11
9.28800
 21
4.65000
  0
ARC
  8
Kontur
 62
   7
 39
0.100
  6
CONTINUOUS
 10
9.28807
 20
3.65000
 30
 0
 40
1.00000
 50
379.45096
 51
90.00419
  0
ARC
  8
Kontur
 62
   7
 39
0.100
  6
CONTINUOUS
 10
7.44960
 20
3.00000
 30
 0
 40
2.95000
 50
340.53565
 51
19.46435
  0
ARC
  8
Kontur
 62
   7
 39
0.100
  6
CONTINUOUS
 10
9.28807
 20
2.35000
 30
 0
 40
1.00000
 50
269.99581
 51
-19.45096
  0
LINE
  8
Kontur
 62
   7
 39
0.100
  6
CONTINUOUS
 10
9.28800
 20
1.35000
 30
 0
 11
5.61200
 21
1.35000
  0
ARC
  8
Kontur
 62
   7
 39
0.100
  6
CONTINUOUS
 10
5.61193
 20
2.35000
 30
 0
 40
1.00000
 50
199.45096
 51
-89.99581
  0
ARC
  8
Kontur
 62
   7
 39
0.100
  6
CONTINUOUS
 10
7.45040
 20
3.00000
 30
 0
 40
2.95000
 50
160.53565
 51
-160.53565
  0
ARC
  8
Kontur
 62
   7
 39
0.100
  6
CONTINUOUS
 10
5.61193
 20
126.05000
 30
 0
 40
1.00000
 50
449.99581
 51
160.54904
  0
LINE
  8
Kontur
 62
   7
 39
0.100
  6
CONTINUOUS
 10
5.61200
 20
127.05000
 30
 0
 11
9.28800
 21
127.05000
  0
ARC
  8
Kontur
 62
   7
 39
0.100
  6
CONTINUOUS
 10
9.28807
 20
126.05000
 30
 0
 40
1.00000
 50
379.45096
 51
90.00419
  0
ARC
  8
Kontur
 62
   7
 39
0.100
  6
CONTINUOUS
 10
7.44960
 20
125.40000
 30
 0
 40
2.95000
 50
340.53565
 51
19.46435
  0
ARC
  8
Kontur
 62
   7
 39
0.100
  6
CONTINUOUS
 10
9.28807
 20
124.75000
 30
 0
 40
1.00000
 50
269.99581
 51
-19.45096
  0
LINE
  8
Kontur
 62
   7
 39
0.100
  6
CONTINUOUS
 10
9.28800
 20
123.75000
 30
 0
 11
5.61200
 21
123.75000
  0
ARC
  8
Kontur
 62
   7
 39
0.100
  6
CONTINUOUS
 10
5.61193
 20
124.75000
 30
 0
 40
1.00000
 50
199.45096
 51
-89.99581
  0
ARC
  8
Kontur
 62
   7
 39
0.100
  6
CONTINUOUS
 10
7.45040
 20
125.40000
 30
 0
 40
2.95000
 50
160.53565
 51
-160.53565
  0
CIRCLE
  8
Kontur
 62
   7
 39
0.100
  6
CONTINUOUS
 10
7.57000
 20
109.12000
 30
 0
 40
3.00000
  0
CIRCLE
  8
Kontur
 62
   7
 39
0.100
  6
CONTINUOUS
 10
7.57000
 20
109.12000
 30
 0
 40
1.60000
  0
ARC
  8
Kontur
 62
   7
 39
0.100
  6
CONTINUOUS
 10
41.17193
 20
3.65000
 30
 0
 40
1.00000
 50
449.99581
 51
160.54904
  0
LINE
  8
Kontur
 62
   7
 39
0.100
  6
CONTINUOUS
 10
41.17200
 20
4.65000
 30
 0
 11
44.84800
 21
4.65000
  0
ARC
  8
Kontur
 62
   7
 39
0.100
  6
CONTINUOUS
 10
44.84807
 20
3.65000
 30
 0
 40
1.00000
 50
379.45096
 51
90.00419
  0
ARC
  8
Kontur
 62
   7
 39
0.100
  6
CONTINUOUS
 10
43.00960
 20
3.00000
 30
 0
 40
2.95000
 50
340.53565
 51
19.46435
  0
ARC
  8
Kontur
 62
   7
 39
0.100
  6
CONTINUOUS
 10
44.84807
 20
2.35000
 30
 0
 40
1.00000
 50
269.99581
 51
-19.45096
  0
LINE
  8
Kontur
 62
   7
 39
0.100
  6
CONTINUOUS
 10
44.84800
 20
1.35000
 30
 0
 11
41.17200
 21
1.35000
  0
ARC
  8
Kontur
 62
   7
 39
0.100
  6
CONTINUOUS
 10
41.17193
 20
2.35000
 30
 0
 40
1.00000
 50
199.45096
 51
-89.99581
  0
ARC
  8
Kontur
 62
   7
 39
0.100
  6
CONTINUOUS
 10
43.01040
 20
3.00000
 30
 0
 40
2.95000
 50
160.53565
 51
-160.53565
  0
ARC
  8
Kontur
 62
   7
 39
0.100
  6
CONTINUOUS
 10
41.17193
 20
126.05000
 30
 0
 40
1.00000
 50
449.99581
 51
160.54904
  0
LINE
  8
Kontur
 62
   7
 39
0.100
  6
CONTINUOUS
 10
41.17200
 20
127.05000
 30
 0
 11
44.84800
 21
127.05000
  0
ARC
  8
Kontur
 62
   7
 39
0.100
  6
CONTINUOUS
 10
44.84807
 20
126.05000
 30
 0
 40
1.00000
 50
379.45096
 51
90.00419
  0
ARC
  8
Kontur
 62
   7
 39
0.100
  6
CONTINUOUS
 10
43.00960
 20
125.40000
 30
 0
 40
2.95000
 50
340.53565
 51
19.46435
  0
ARC
  8
Kontur
 62
   7
 39
0.100
  6
CONTINUOUS
 10
44.84807
 20
124.75000
 30
 0
 40
1.00000
 50
269.99581
 51
-19.45096
  0
LINE
  8
Kontur
 62
   7
 39
0.100
  6
CONTINUOUS
 10
44.84800
 20
123.75000
 30
 0
 11
41.17200
 21
123.75000
  0
ARC
  8
Kontur
 62
   7
 39
0.100
  6
CONTINUOUS
 10
41.17193
 20
124.75000
 30
 0
 40
1.00000
 50
199.45096
 51
-89.99581
  0
ARC
  8
Kontur
 62
   7
 39
0.100
  6
CONTINUOUS
 10
43.01040
 20
125.40000
 30
 0
 40
2.95000
 50
160.53565
 51
-160.53565
  0
CIRCLE
  8
Kontur
 62
   7
 39
0.100
  6
CONTINUOUS
 10
7.57000
 20
17.68000
 30
 0
 40
3.00000
  0
CIRCLE
  8
Kontur
 62
   7
 39
0.100
  6
CONTINUOUS
 10
7.57000
 20
17.68000
 30
 0
 40
1.60000
  0
CIRCLE
  8
Kontur
 62
   7
 39
0.100
  6
CONTINUOUS
 10
15.19000
 20
71.02000
 30
 0
 40
4.50000
  0
ARC
  8
Kontur
 62
   7
 39
0.100
  6
CONTINUOUS
 10
40.85000
 20
98.38000
 30
 0
 40
1.50000
 50
360.00000
 51
90.00000
  0
LINE
  8
Kontur
 62
   7
 39
0.100
  6
CONTINUOUS
 10
42.35000
 20
98.38000
 30
 0
 11
42.35000
 21
89.38000
  0
ARC
  8
Kontur
 62
   7
 39
0.100
  6
CONTINUOUS
 10
40.85000
 20
89.38000
 30
 0
 40
1.50000
 50
270.00000
 51
0.00000
  0
LINE
  8
Kontur
 62
   7
 39
0.100
  6
CONTINUOUS
 10
40.85000
 20
87.88000
 30
 0
 11
9.85000
 21
87.88000
  0
ARC
  8
Kontur
 62
   7
 39
0.100
  6
CONTINUOUS
 10
9.85000
 20
89.38000
 30
 0
 40
1.50000
 50
180.00000
 51
-90.00000
  0
LINE
  8
Kontur
 62
   7
 39
0.100
  6
CONTINUOUS
 10
8.35000
 20
89.38000
 30
 0
 11
8.35000
 21
98.38000
  0
ARC
  8
Kontur
 62
   7
 39
0.100
  6
CONTINUOUS
 10
9.85000
 20
98.38000
 30
 0
 40
1.50000
 50
450.00000
 51
180.00000
  0
LINE
  8
Kontur
 62
   7
 39
0.100
  6
CONTINUOUS
 10
9.85000
 20
99.88000
 30
 0
 11
40.85000
 21
99.88000
  0
CIRCLE
  8
Kontur
 62
   7
 39
0.100
  6
CONTINUOUS
 10
15.19000
 20
60.86000
 30
 0
 40
1.50000
  0
CIRCLE
  8
Kontur
 62
   7
 39
0.100
  6
CONTINUOUS
 10
34.24100
 20
60.86000
 30
 0
 40
4.50000
  0
CIRCLE
  8
Kontur
 62
   7
 39
0.100
  6
CONTINUOUS
 10
15.19100
 20
50.70000
 30
 0
 40
4.50000
  0
CIRCLE
  8
Kontur
 62
   7
 39
0.100
  6
CONTINUOUS
 10
16.46000
 20
109.12000
 30
 0
 40
1.50000
  0
CIRCLE
  8
Kontur
 62
   7
 39
0.100
  6
CONTINUOUS
 10
43.13000
 20
109.12000
 30
 0
 40
3.00000
  0
CIRCLE
  8
Kontur
 62
   7
 39
0.100
  6
CONTINUOUS
 10
43.13000
 20
109.12000
 30
 0
 40
1.60000
  0
CIRCLE
  8
Kontur
 62
   7
 39
0.100
  6
CONTINUOUS
 10
43.13000
 20
17.68000
 30
 0
 40
3.00000
  0
CIRCLE
  8
Kontur
 62
   7
 39
0.100
  6
CONTINUOUS
 10
43.13000
 20
17.68000
 30
 0
 40
1.60000
  0
CIRCLE
  8
Kontur
 62
   7
 39
0.100
  6
CONTINUOUS
 10
34.85000
 20
25.30000
 30
 0
 40
3.80000
  0
CIRCLE
  8
Kontur
 62
   7
 39
0.100
  6
CONTINUOUS
 10
15.85000
 20
25.30000
 30
 0
 40
3.80000
  0
ENDSEC
  0
EOF
