  0
SECTION
  2
HEADER
  0
ENDSEC
  0
SECTION
  2
TABLES
  0
TABLE
  2
LTYPE
 70
     1
  0
LTYPE
  2
CONTINUOUS
 70
    64
  3
Ausgezogene Linie
 72
    65
 73
     0
 40
0.0
  0
ENDTAB
  0
TABLE
  2
LAYER
 70
     3
  0
LAYER
  2
Kontur
 70
    64
 62
     7
  6
CONTINUOUS
  0
LAYER
  2
Gravur
 70
    64
 62
     7
  6
CONTINUOUS
  0
LAYER
  2
Bezugspunkte
 70
    64
 62
     1
  6
CONTINUOUS
  0
ENDTAB
  0
TABLE
  2
STYLE
 70
     1
  0
STYLE
  2
TXT
 70
    64
 40
0.0
 41
1.0
 50
0.0
 71
     0
 42
3.500000
  3
TXT
  0
ENDTAB
  0
ENDSEC
  0
SECTION
  2
BLOCKS
  0
ENDSEC
  0
SECTION
  2
ENTITIES
  0
LINE
  8
Kontur
 62
   7
 39
0.100
  6
CONTINUOUS
 10
45.55000
 20
128.40000
 30
 0
 11
0.00000
 21
128.40000
  0
LINE
  8
Kontur
 62
   7
 39
0.100
  6
CONTINUOUS
 10
0.00000
 20
128.40000
 30
 0
 11
0.00000
 21
128.40000
  0
LINE
  8
Kontur
 62
   7
 39
0.100
  6
CONTINUOUS
 10
0.00000
 20
128.40000
 30
 0
 11
0.00000
 21
0.00000
  0
LINE
  8
Kontur
 62
   7
 39
0.100
  6
CONTINUOUS
 10
0.00000
 20
0.00000
 30
 0
 11
0.00000
 21
0.00000
  0
LINE
  8
Kontur
 62
   7
 39
0.100
  6
CONTINUOUS
 10
0.00000
 20
0.00000
 30
 0
 11
91.10000
 21
0.00000
  0
LINE
  8
Kontur
 62
   7
 39
0.100
  6
CONTINUOUS
 10
91.10000
 20
0.00000
 30
 0
 11
91.10000
 21
0.00000
  0
LINE
  8
Kontur
 62
   7
 39
0.100
  6
CONTINUOUS
 10
91.10000
 20
0.00000
 30
 0
 11
91.10000
 21
128.40000
  0
LINE
  8
Kontur
 62
   7
 39
0.100
  6
CONTINUOUS
 10
91.10000
 20
128.40000
 30
 0
 11
91.10000
 21
128.40000
  0
LINE
  8
Kontur
 62
   7
 39
0.100
  6
CONTINUOUS
 10
91.10000
 20
128.40000
 30
 0
 11
45.55000
 21
128.40000
  0
LINE
  8
Gravur
 62
   7
 39
0.200
  6
CONTINUOUS
 10
27.72100
 20
100.94000
 30
 0
 11
28.96100
 21
100.94000
  0
ARC
  8
Gravur
 62
   7
 39
0.200
  6
CONTINUOUS
 10
28.96401
 20
101.53699
 30
 0
 40
0.59700
 50
-90.28865
 51
0.28865
  0
LINE
  8
Gravur
 62
   7
 39
0.200
  6
CONTINUOUS
 10
29.56100
 20
101.54000
 30
 0
 11
29.56100
 21
101.78000
  0
ARC
  8
Gravur
 62
   7
 39
0.200
  6
CONTINUOUS
 10
28.96401
 20
101.78301
 30
 0
 40
0.59700
 50
-0.28865
 51
90.28865
  0
LINE
  8
Gravur
 62
   7
 39
0.200
  6
CONTINUOUS
 10
28.96100
 20
102.38000
 30
 0
 11
27.72100
 21
102.38000
  0
LINE
  8
Gravur
 62
   7
 39
0.200
  6
CONTINUOUS
 10
27.72100
 20
102.38000
 30
 0
 11
27.72100
 21
100.94000
  0
LINE
  8
Gravur
 62
   7
 39
0.200
  6
CONTINUOUS
 10
27.72100
 20
100.94000
 30
 0
 11
27.72100
 21
99.50000
  0
ARC
  8
Gravur
 62
   7
 39
0.200
  6
CONTINUOUS
 10
31.77182
 20
100.55000
 30
 0
 40
1.76200
 50
169.20549
 51
-169.20549
  0
ARC
  8
Gravur
 62
   7
 39
0.200
  6
CONTINUOUS
 10
30.90100
 20
100.71334
 30
 0
 40
0.87600
 50
370.96753
 51
169.03247
  0
ARC
  8
Gravur
 62
   7
 39
0.200
  6
CONTINUOUS
 10
30.03018
 20
100.55000
 30
 0
 40
1.76200
 50
349.20549
 51
10.79451
  0
ARC
  8
Gravur
 62
   7
 39
0.200
  6
CONTINUOUS
 10
30.90100
 20
100.38666
 30
 0
 40
0.87600
 50
190.96753
 51
-10.96753
  0
LINE
  8
Gravur
 62
   7
 39
0.200
  6
CONTINUOUS
 10
32.24100
 20
101.50000
 30
 0
 11
32.24100
 21
99.50000
  0
LINE
  8
Gravur
 62
   7
 39
0.200
  6
CONTINUOUS
 10
32.24100
 20
99.50000
 30
 0
 11
32.24100
 21
100.70000
  0
ARC
  8
Gravur
 62
   7
 39
0.200
  6
CONTINUOUS
 10
33.13399
 20
100.69696
 30
 0
 40
0.89300
 50
458.56495
 51
179.80489
  0
LINE
  8
Gravur
 62
   7
 39
0.200
  6
CONTINUOUS
 10
33.44100
 20
101.58000
 30
 0
 11
34.16100
 21
101.58000
  0
LINE
  8
Gravur
 62
   7
 39
0.200
  6
CONTINUOUS
 10
34.16100
 20
101.58000
 30
 0
 11
33.76100
 21
101.58000
  0
LINE
  8
Gravur
 62
   7
 39
0.200
  6
CONTINUOUS
 10
33.76100
 20
101.58000
 30
 0
 11
33.76100
 21
102.22000
  0
LINE
  8
Gravur
 62
   7
 39
0.200
  6
CONTINUOUS
 10
33.76100
 20
102.22000
 30
 0
 11
33.76100
 21
99.90000
  0
ARC
  8
Gravur
 62
   7
 39
0.200
  6
CONTINUOUS
 10
34.15899
 20
99.89799
 30
 0
 40
0.39800
 50
179.71135
 51
270.28865
  0
ARC
  8
Gravur
 62
   7
 39
0.200
  6
CONTINUOUS
 10
39.86921
 20
100.94000
 30
 0
 40
3.34600
 50
164.75182
 51
195.24818
  0
ARC
  8
Gravur
 62
   7
 39
0.200
  6
CONTINUOUS
 10
37.40928
 20
100.30696
 30
 0
 40
0.80700
 50
-162.18051
 51
-90.58819
  0
ARC
  8
Gravur
 62
   7
 39
0.200
  6
CONTINUOUS
 10
37.39272
 20
100.30696
 30
 0
 40
0.80700
 50
-89.41181
 51
-17.81949
  0
ARC
  8
Gravur
 62
   7
 39
0.200
  6
CONTINUOUS
 10
34.93279
 20
100.94000
 30
 0
 40
3.34600
 50
-15.24818
 51
15.24818
  0
ARC
  8
Gravur
 62
   7
 39
0.200
  6
CONTINUOUS
 10
37.40100
 20
101.57020
 30
 0
 40
0.80000
 50
18.19487
 51
161.80513
  0
LINE
  8
Gravur
 62
   7
 39
0.200
  6
CONTINUOUS
 10
27.72000
 20
76.94000
 30
 0
 11
28.96000
 21
76.94000
  0
ARC
  8
Gravur
 62
   7
 39
0.200
  6
CONTINUOUS
 10
28.96301
 20
77.53699
 30
 0
 40
0.59700
 50
-90.28865
 51
0.28865
  0
LINE
  8
Gravur
 62
   7
 39
0.200
  6
CONTINUOUS
 10
29.56000
 20
77.54000
 30
 0
 11
29.56000
 21
77.78000
  0
ARC
  8
Gravur
 62
   7
 39
0.200
  6
CONTINUOUS
 10
28.96301
 20
77.78301
 30
 0
 40
0.59700
 50
-0.28865
 51
90.28865
  0
LINE
  8
Gravur
 62
   7
 39
0.200
  6
CONTINUOUS
 10
28.96000
 20
78.38000
 30
 0
 11
27.72000
 21
78.38000
  0
LINE
  8
Gravur
 62
   7
 39
0.200
  6
CONTINUOUS
 10
27.72000
 20
78.38000
 30
 0
 11
27.72000
 21
76.94000
  0
LINE
  8
Gravur
 62
   7
 39
0.200
  6
CONTINUOUS
 10
27.72000
 20
76.94000
 30
 0
 11
27.72000
 21
75.50000
  0
ARC
  8
Gravur
 62
   7
 39
0.200
  6
CONTINUOUS
 10
31.77082
 20
76.55000
 30
 0
 40
1.76200
 50
169.20549
 51
-169.20549
  0
ARC
  8
Gravur
 62
   7
 39
0.200
  6
CONTINUOUS
 10
30.90000
 20
76.71334
 30
 0
 40
0.87600
 50
370.96753
 51
169.03247
  0
ARC
  8
Gravur
 62
   7
 39
0.200
  6
CONTINUOUS
 10
30.02918
 20
76.55000
 30
 0
 40
1.76200
 50
349.20549
 51
10.79451
  0
ARC
  8
Gravur
 62
   7
 39
0.200
  6
CONTINUOUS
 10
30.90000
 20
76.38666
 30
 0
 40
0.87600
 50
190.96753
 51
-10.96753
  0
LINE
  8
Gravur
 62
   7
 39
0.200
  6
CONTINUOUS
 10
32.24000
 20
77.50000
 30
 0
 11
32.24000
 21
75.50000
  0
LINE
  8
Gravur
 62
   7
 39
0.200
  6
CONTINUOUS
 10
32.24000
 20
75.50000
 30
 0
 11
32.24000
 21
76.70000
  0
ARC
  8
Gravur
 62
   7
 39
0.200
  6
CONTINUOUS
 10
33.13299
 20
76.69696
 30
 0
 40
0.89300
 50
458.56495
 51
179.80489
  0
LINE
  8
Gravur
 62
   7
 39
0.200
  6
CONTINUOUS
 10
33.44000
 20
77.58000
 30
 0
 11
34.16000
 21
77.58000
  0
LINE
  8
Gravur
 62
   7
 39
0.200
  6
CONTINUOUS
 10
34.16000
 20
77.58000
 30
 0
 11
33.76000
 21
77.58000
  0
LINE
  8
Gravur
 62
   7
 39
0.200
  6
CONTINUOUS
 10
33.76000
 20
77.58000
 30
 0
 11
33.76000
 21
78.22000
  0
LINE
  8
Gravur
 62
   7
 39
0.200
  6
CONTINUOUS
 10
33.76000
 20
78.22000
 30
 0
 11
33.76000
 21
75.90000
  0
ARC
  8
Gravur
 62
   7
 39
0.200
  6
CONTINUOUS
 10
34.15799
 20
75.89799
 30
 0
 40
0.39800
 50
179.71135
 51
270.28865
  0
ARC
  8
Gravur
 62
   7
 39
0.200
  6
CONTINUOUS
 10
37.33599
 20
77.58401
 30
 0
 40
0.79600
 50
89.71135
 51
-179.71135
  0
LINE
  8
Gravur
 62
   7
 39
0.200
  6
CONTINUOUS
 10
37.34000
 20
78.38000
 30
 0
 11
37.42000
 21
78.38000
  0
ARC
  8
Gravur
 62
   7
 39
0.200
  6
CONTINUOUS
 10
37.42652
 20
77.57303
 30
 0
 40
0.80700
 50
300.82138
 51
90.46311
  0
LINE
  8
Gravur
 62
   7
 39
0.200
  6
CONTINUOUS
 10
37.84000
 20
76.88000
 30
 0
 11
37.12000
 21
76.48000
  0
ARC
  8
Gravur
 62
   7
 39
0.200
  6
CONTINUOUS
 10
37.64192
 20
75.48678
 30
 0
 40
1.12200
 50
117.72131
 51
179.32502
  0
LINE
  8
Gravur
 62
   7
 39
0.200
  6
CONTINUOUS
 10
36.52000
 20
75.50000
 30
 0
 11
38.28000
 21
75.50000
  0
LINE
  8
Gravur
 62
   7
 39
0.200
  6
CONTINUOUS
 10
61.46000
 20
27.50000
 30
 0
 11
62.06000
 21
28.94000
  0
LINE
  8
Gravur
 62
   7
 39
0.200
  6
CONTINUOUS
 10
62.06000
 20
28.94000
 30
 0
 11
62.66000
 21
30.38000
  0
LINE
  8
Gravur
 62
   7
 39
0.200
  6
CONTINUOUS
 10
62.66000
 20
30.38000
 30
 0
 11
62.74000
 21
30.38000
  0
LINE
  8
Gravur
 62
   7
 39
0.200
  6
CONTINUOUS
 10
62.74000
 20
30.38000
 30
 0
 11
63.34000
 21
28.94000
  0
LINE
  8
Gravur
 62
   7
 39
0.200
  6
CONTINUOUS
 10
63.34000
 20
28.94000
 30
 0
 11
63.94000
 21
27.50000
  0
LINE
  8
Gravur
 62
   7
 39
0.200
  6
CONTINUOUS
 10
61.86000
 20
28.46000
 30
 0
 11
63.54000
 21
28.46000
  0
LINE
  8
Gravur
 62
   7
 39
0.200
  6
CONTINUOUS
 10
65.42000
 20
30.78000
 30
 0
 11
64.90000
 21
28.90000
  0
LINE
  8
Gravur
 62
   7
 39
0.200
  6
CONTINUOUS
 10
64.90000
 20
28.90000
 30
 0
 11
64.38000
 21
27.02000
  0
LINE
  8
Gravur
 62
   7
 39
0.200
  6
CONTINUOUS
 10
65.86000
 20
27.50000
 30
 0
 11
65.86000
 21
28.94000
  0
LINE
  8
Gravur
 62
   7
 39
0.200
  6
CONTINUOUS
 10
65.86000
 20
28.94000
 30
 0
 11
65.86000
 21
30.38000
  0
LINE
  8
Gravur
 62
   7
 39
0.200
  6
CONTINUOUS
 10
65.86000
 20
30.38000
 30
 0
 11
66.98000
 21
30.38000
  0
ARC
  8
Gravur
 62
   7
 39
0.200
  6
CONTINUOUS
 10
66.98545
 20
29.52102
 30
 0
 40
0.85900
 50
402.37805
 51
90.36319
  0
ARC
  8
Gravur
 62
   7
 39
0.200
  6
CONTINUOUS
 10
66.47502
 20
29.09271
 30
 0
 40
1.52500
 50
360.27402
 51
41.33956
  0
LINE
  8
Gravur
 62
   7
 39
0.200
  6
CONTINUOUS
 10
68.00000
 20
29.10000
 30
 0
 11
68.00000
 21
28.78000
  0
ARC
  8
Gravur
 62
   7
 39
0.200
  6
CONTINUOUS
 10
66.47502
 20
28.78729
 30
 0
 40
1.52500
 50
318.66044
 51
-0.27402
  0
ARC
  8
Gravur
 62
   7
 39
0.200
  6
CONTINUOUS
 10
66.98545
 20
28.35898
 30
 0
 40
0.85900
 50
269.63681
 51
-42.37805
  0
LINE
  8
Gravur
 62
   7
 39
0.200
  6
CONTINUOUS
 10
66.98000
 20
27.50000
 30
 0
 11
65.86000
 21
27.50000
  0
LINE
  8
Gravur
 62
   7
 39
0.200
  6
CONTINUOUS
 10
70.34000
 20
29.74000
 30
 0
 11
70.42000
 21
29.74000
  0
ARC
  8
Gravur
 62
   7
 39
0.200
  6
CONTINUOUS
 10
70.42301
 20
30.37699
 30
 0
 40
0.63700
 50
-90.27048
 51
0.27048
  0
LINE
  8
Gravur
 62
   7
 39
0.200
  6
CONTINUOUS
 10
71.06000
 20
30.38000
 30
 0
 11
71.06000
 21
28.94000
  0
LINE
  8
Gravur
 62
   7
 39
0.200
  6
CONTINUOUS
 10
71.06000
 20
28.94000
 30
 0
 11
71.06000
 21
27.50000
  0
ARC
  8
Gravur
 62
   7
 39
0.200
  6
CONTINUOUS
 10
72.46162
 20
28.36094
 30
 0
 40
0.87500
 50
45.03122
 51
-159.88310
  0
ARC
  8
Gravur
 62
   7
 39
0.200
  6
CONTINUOUS
 10
72.45303
 20
28.35256
 30
 0
 40
0.88700
 50
360.48050
 51
45.02145
  0
ARC
  8
Gravur
 62
   7
 39
0.200
  6
CONTINUOUS
 10
72.46301
 20
28.36297
 30
 0
 40
0.87700
 50
200.21009
 51
-0.19413
  0
ARC
  8
Gravur
 62
   7
 39
0.200
  6
CONTINUOUS
 10
73.78451
 20
28.86323
 30
 0
 40
2.29000
 50
149.07771
 51
-159.46657
  0
ARC
  8
Gravur
 62
   7
 39
0.200
  6
CONTINUOUS
 10
72.50877
 20
29.63899
 30
 0
 40
0.79700
 50
374.60843
 51
149.79119
  0
LINE
  8
Gravur
 62
   7
 39
0.200
  6
CONTINUOUS
 10
73.78000
 20
28.78000
 30
 0
 11
75.06000
 21
28.78000
  0
LINE
  8
Gravur
 62
   7
 39
0.200
  6
CONTINUOUS
 10
75.06000
 20
28.78000
 30
 0
 11
76.34000
 21
28.78000
  0
ARC
  8
Gravur
 62
   7
 39
0.200
  6
CONTINUOUS
 10
77.57699
 20
29.74301
 30
 0
 40
0.63700
 50
89.72952
 51
180.27048
  0
LINE
  8
Gravur
 62
   7
 39
0.200
  6
CONTINUOUS
 10
76.94000
 20
29.74000
 30
 0
 11
76.94000
 21
29.66000
  0
ARC
  8
Gravur
 62
   7
 39
0.200
  6
CONTINUOUS
 10
77.57699
 20
29.65699
 30
 0
 40
0.63700
 50
179.72952
 51
270.27048
  0
LINE
  8
Gravur
 62
   7
 39
0.200
  6
CONTINUOUS
 10
77.58000
 20
29.02000
 30
 0
 11
77.82000
 21
29.02000
  0
ARC
  8
Gravur
 62
   7
 39
0.200
  6
CONTINUOUS
 10
77.82401
 20
28.30401
 30
 0
 40
0.71600
 50
359.67901
 51
90.32099
  0
LINE
  8
Gravur
 62
   7
 39
0.200
  6
CONTINUOUS
 10
78.54000
 20
28.30000
 30
 0
 11
78.54000
 21
28.22000
  0
ARC
  8
Gravur
 62
   7
 39
0.200
  6
CONTINUOUS
 10
77.82007
 20
28.22994
 30
 0
 40
0.72000
 50
279.58853
 51
-0.79112
  0
ARC
  8
Gravur
 62
   7
 39
0.200
  6
CONTINUOUS
 10
77.66000
 20
28.98855
 30
 0
 40
1.49500
 50
259.20527
 51
-79.20527
  0
ARC
  8
Gravur
 62
   7
 39
0.200
  6
CONTINUOUS
 10
77.49993
 20
28.22994
 30
 0
 40
0.72000
 50
180.79112
 51
-99.58853
  0
LINE
  8
Gravur
 62
   7
 39
0.200
  6
CONTINUOUS
 10
76.78000
 20
28.22000
 30
 0
 11
76.78000
 21
28.30000
  0
ARC
  8
Gravur
 62
   7
 39
0.200
  6
CONTINUOUS
 10
77.49599
 20
28.30401
 30
 0
 40
0.71600
 50
89.67901
 51
-179.67901
  0
LINE
  8
Gravur
 62
   7
 39
0.200
  6
CONTINUOUS
 10
77.50000
 20
29.02000
 30
 0
 11
77.74000
 21
29.02000
  0
ARC
  8
Gravur
 62
   7
 39
0.200
  6
CONTINUOUS
 10
77.74301
 20
29.65699
 30
 0
 40
0.63700
 50
-90.27048
 51
0.27048
  0
LINE
  8
Gravur
 62
   7
 39
0.200
  6
CONTINUOUS
 10
78.38000
 20
29.66000
 30
 0
 11
78.38000
 21
29.74000
  0
ARC
  8
Gravur
 62
   7
 39
0.200
  6
CONTINUOUS
 10
77.74301
 20
29.74301
 30
 0
 40
0.63700
 50
-0.27048
 51
90.27048
  0
LINE
  8
Gravur
 62
   7
 39
0.200
  6
CONTINUOUS
 10
77.74000
 20
30.38000
 30
 0
 11
77.58000
 21
30.38000
  0
LINE
  8
Gravur
 62
   7
 39
0.200
  6
CONTINUOUS
 10
24.50000
 20
27.50000
 30
 0
 11
24.50000
 21
28.94000
  0
LINE
  8
Gravur
 62
   7
 39
0.200
  6
CONTINUOUS
 10
24.50000
 20
28.94000
 30
 0
 11
24.50000
 21
30.38000
  0
LINE
  8
Gravur
 62
   7
 39
0.200
  6
CONTINUOUS
 10
24.50000
 20
30.38000
 30
 0
 11
25.62000
 21
30.38000
  0
ARC
  8
Gravur
 62
   7
 39
0.200
  6
CONTINUOUS
 10
25.62545
 20
29.52102
 30
 0
 40
0.85900
 50
402.37805
 51
90.36319
  0
ARC
  8
Gravur
 62
   7
 39
0.200
  6
CONTINUOUS
 10
25.11502
 20
29.09271
 30
 0
 40
1.52500
 50
360.27402
 51
41.33956
  0
LINE
  8
Gravur
 62
   7
 39
0.200
  6
CONTINUOUS
 10
26.64000
 20
29.10000
 30
 0
 11
26.64000
 21
28.78000
  0
ARC
  8
Gravur
 62
   7
 39
0.200
  6
CONTINUOUS
 10
25.11502
 20
28.78729
 30
 0
 40
1.52500
 50
318.66044
 51
-0.27402
  0
ARC
  8
Gravur
 62
   7
 39
0.200
  6
CONTINUOUS
 10
25.62545
 20
28.35898
 30
 0
 40
0.85900
 50
269.63681
 51
-42.37805
  0
LINE
  8
Gravur
 62
   7
 39
0.200
  6
CONTINUOUS
 10
25.62000
 20
27.50000
 30
 0
 11
24.50000
 21
27.50000
  0
LINE
  8
Gravur
 62
   7
 39
0.200
  6
CONTINUOUS
 10
28.10000
 20
30.78000
 30
 0
 11
27.58000
 21
28.90000
  0
LINE
  8
Gravur
 62
   7
 39
0.200
  6
CONTINUOUS
 10
27.58000
 20
28.90000
 30
 0
 11
27.06000
 21
27.02000
  0
LINE
  8
Gravur
 62
   7
 39
0.200
  6
CONTINUOUS
 10
28.54000
 20
27.50000
 30
 0
 11
29.14000
 21
28.94000
  0
LINE
  8
Gravur
 62
   7
 39
0.200
  6
CONTINUOUS
 10
29.14000
 20
28.94000
 30
 0
 11
29.74000
 21
30.38000
  0
LINE
  8
Gravur
 62
   7
 39
0.200
  6
CONTINUOUS
 10
29.74000
 20
30.38000
 30
 0
 11
29.82000
 21
30.38000
  0
LINE
  8
Gravur
 62
   7
 39
0.200
  6
CONTINUOUS
 10
29.82000
 20
30.38000
 30
 0
 11
30.42000
 21
28.94000
  0
LINE
  8
Gravur
 62
   7
 39
0.200
  6
CONTINUOUS
 10
30.42000
 20
28.94000
 30
 0
 11
31.02000
 21
27.50000
  0
LINE
  8
Gravur
 62
   7
 39
0.200
  6
CONTINUOUS
 10
28.94000
 20
28.46000
 30
 0
 11
30.62000
 21
28.46000
  0
LINE
  8
Gravur
 62
   7
 39
0.200
  6
CONTINUOUS
 10
33.38000
 20
29.74000
 30
 0
 11
33.46000
 21
29.74000
  0
ARC
  8
Gravur
 62
   7
 39
0.200
  6
CONTINUOUS
 10
33.46301
 20
30.37699
 30
 0
 40
0.63700
 50
-90.27048
 51
0.27048
  0
LINE
  8
Gravur
 62
   7
 39
0.200
  6
CONTINUOUS
 10
34.10000
 20
30.38000
 30
 0
 11
34.10000
 21
28.94000
  0
LINE
  8
Gravur
 62
   7
 39
0.200
  6
CONTINUOUS
 10
34.10000
 20
28.94000
 30
 0
 11
34.10000
 21
27.50000
  0
ARC
  8
Gravur
 62
   7
 39
0.200
  6
CONTINUOUS
 10
35.35599
 20
29.58401
 30
 0
 40
0.79600
 50
89.71135
 51
-179.71135
  0
LINE
  8
Gravur
 62
   7
 39
0.200
  6
CONTINUOUS
 10
35.36000
 20
30.38000
 30
 0
 11
35.44000
 21
30.38000
  0
ARC
  8
Gravur
 62
   7
 39
0.200
  6
CONTINUOUS
 10
35.44652
 20
29.57303
 30
 0
 40
0.80700
 50
300.82138
 51
90.46311
  0
LINE
  8
Gravur
 62
   7
 39
0.200
  6
CONTINUOUS
 10
35.86000
 20
28.88000
 30
 0
 11
35.14000
 21
28.48000
  0
ARC
  8
Gravur
 62
   7
 39
0.200
  6
CONTINUOUS
 10
35.66192
 20
27.48678
 30
 0
 40
1.12200
 50
117.72131
 51
179.32502
  0
LINE
  8
Gravur
 62
   7
 39
0.200
  6
CONTINUOUS
 10
34.54000
 20
27.50000
 30
 0
 11
36.30000
 21
27.50000
  0
LINE
  8
Gravur
 62
   7
 39
0.200
  6
CONTINUOUS
 10
36.74000
 20
28.78000
 30
 0
 11
38.02000
 21
28.78000
  0
LINE
  8
Gravur
 62
   7
 39
0.200
  6
CONTINUOUS
 10
38.02000
 20
28.78000
 30
 0
 11
39.30000
 21
28.78000
  0
ARC
  8
Gravur
 62
   7
 39
0.200
  6
CONTINUOUS
 10
40.53699
 20
29.74301
 30
 0
 40
0.63700
 50
89.72952
 51
180.27048
  0
LINE
  8
Gravur
 62
   7
 39
0.200
  6
CONTINUOUS
 10
39.90000
 20
29.74000
 30
 0
 11
39.90000
 21
29.66000
  0
ARC
  8
Gravur
 62
   7
 39
0.200
  6
CONTINUOUS
 10
40.53699
 20
29.65699
 30
 0
 40
0.63700
 50
179.72952
 51
270.27048
  0
LINE
  8
Gravur
 62
   7
 39
0.200
  6
CONTINUOUS
 10
40.54000
 20
29.02000
 30
 0
 11
40.78000
 21
29.02000
  0
ARC
  8
Gravur
 62
   7
 39
0.200
  6
CONTINUOUS
 10
40.78401
 20
28.30401
 30
 0
 40
0.71600
 50
359.67901
 51
90.32099
  0
LINE
  8
Gravur
 62
   7
 39
0.200
  6
CONTINUOUS
 10
41.50000
 20
28.30000
 30
 0
 11
41.50000
 21
28.22000
  0
ARC
  8
Gravur
 62
   7
 39
0.200
  6
CONTINUOUS
 10
40.78007
 20
28.22994
 30
 0
 40
0.72000
 50
279.58853
 51
-0.79112
  0
ARC
  8
Gravur
 62
   7
 39
0.200
  6
CONTINUOUS
 10
40.62000
 20
28.98855
 30
 0
 40
1.49500
 50
259.20527
 51
-79.20527
  0
ARC
  8
Gravur
 62
   7
 39
0.200
  6
CONTINUOUS
 10
40.45993
 20
28.22994
 30
 0
 40
0.72000
 50
180.79112
 51
-99.58853
  0
LINE
  8
Gravur
 62
   7
 39
0.200
  6
CONTINUOUS
 10
39.74000
 20
28.22000
 30
 0
 11
39.74000
 21
28.30000
  0
ARC
  8
Gravur
 62
   7
 39
0.200
  6
CONTINUOUS
 10
40.45599
 20
28.30401
 30
 0
 40
0.71600
 50
89.67901
 51
-179.67901
  0
LINE
  8
Gravur
 62
   7
 39
0.200
  6
CONTINUOUS
 10
40.46000
 20
29.02000
 30
 0
 11
40.70000
 21
29.02000
  0
ARC
  8
Gravur
 62
   7
 39
0.200
  6
CONTINUOUS
 10
40.70301
 20
29.65699
 30
 0
 40
0.63700
 50
-90.27048
 51
0.27048
  0
LINE
  8
Gravur
 62
   7
 39
0.200
  6
CONTINUOUS
 10
41.34000
 20
29.66000
 30
 0
 11
41.34000
 21
29.74000
  0
ARC
  8
Gravur
 62
   7
 39
0.200
  6
CONTINUOUS
 10
40.70301
 20
29.74301
 30
 0
 40
0.63700
 50
-0.27048
 51
90.27048
  0
LINE
  8
Gravur
 62
   7
 39
0.200
  6
CONTINUOUS
 10
40.70000
 20
30.38000
 30
 0
 11
40.54000
 21
30.38000
  0
LINE
  8
Gravur
 62
   7
 39
0.200
  6
CONTINUOUS
 10
65.24000
 20
100.94000
 30
 0
 11
66.48000
 21
100.94000
  0
ARC
  8
Gravur
 62
   7
 39
0.200
  6
CONTINUOUS
 10
66.48301
 20
101.53699
 30
 0
 40
0.59700
 50
-90.28865
 51
0.28865
  0
LINE
  8
Gravur
 62
   7
 39
0.200
  6
CONTINUOUS
 10
67.08000
 20
101.54000
 30
 0
 11
67.08000
 21
101.78000
  0
ARC
  8
Gravur
 62
   7
 39
0.200
  6
CONTINUOUS
 10
66.48301
 20
101.78301
 30
 0
 40
0.59700
 50
-0.28865
 51
90.28865
  0
LINE
  8
Gravur
 62
   7
 39
0.200
  6
CONTINUOUS
 10
66.48000
 20
102.38000
 30
 0
 11
65.24000
 21
102.38000
  0
LINE
  8
Gravur
 62
   7
 39
0.200
  6
CONTINUOUS
 10
65.24000
 20
102.38000
 30
 0
 11
65.24000
 21
100.94000
  0
LINE
  8
Gravur
 62
   7
 39
0.200
  6
CONTINUOUS
 10
65.24000
 20
100.94000
 30
 0
 11
65.24000
 21
99.50000
  0
ARC
  8
Gravur
 62
   7
 39
0.200
  6
CONTINUOUS
 10
69.29082
 20
100.55000
 30
 0
 40
1.76200
 50
169.20549
 51
-169.20549
  0
ARC
  8
Gravur
 62
   7
 39
0.200
  6
CONTINUOUS
 10
68.42000
 20
100.71334
 30
 0
 40
0.87600
 50
370.96753
 51
169.03247
  0
ARC
  8
Gravur
 62
   7
 39
0.200
  6
CONTINUOUS
 10
67.54918
 20
100.55000
 30
 0
 40
1.76200
 50
349.20549
 51
10.79451
  0
ARC
  8
Gravur
 62
   7
 39
0.200
  6
CONTINUOUS
 10
68.42000
 20
100.38666
 30
 0
 40
0.87600
 50
190.96753
 51
-10.96753
  0
LINE
  8
Gravur
 62
   7
 39
0.200
  6
CONTINUOUS
 10
69.76000
 20
101.50000
 30
 0
 11
69.76000
 21
99.50000
  0
LINE
  8
Gravur
 62
   7
 39
0.200
  6
CONTINUOUS
 10
69.76000
 20
99.50000
 30
 0
 11
69.76000
 21
100.70000
  0
ARC
  8
Gravur
 62
   7
 39
0.200
  6
CONTINUOUS
 10
70.65299
 20
100.69696
 30
 0
 40
0.89300
 50
458.56495
 51
179.80489
  0
LINE
  8
Gravur
 62
   7
 39
0.200
  6
CONTINUOUS
 10
70.96000
 20
101.58000
 30
 0
 11
71.68000
 21
101.58000
  0
LINE
  8
Gravur
 62
   7
 39
0.200
  6
CONTINUOUS
 10
71.68000
 20
101.58000
 30
 0
 11
71.28000
 21
101.58000
  0
LINE
  8
Gravur
 62
   7
 39
0.200
  6
CONTINUOUS
 10
71.28000
 20
101.58000
 30
 0
 11
71.28000
 21
102.22000
  0
LINE
  8
Gravur
 62
   7
 39
0.200
  6
CONTINUOUS
 10
71.28000
 20
102.22000
 30
 0
 11
71.28000
 21
99.90000
  0
ARC
  8
Gravur
 62
   7
 39
0.200
  6
CONTINUOUS
 10
71.67799
 20
99.89799
 30
 0
 40
0.39800
 50
179.71135
 51
270.28865
  0
LINE
  8
Gravur
 62
   7
 39
0.200
  6
CONTINUOUS
 10
74.04000
 20
101.74000
 30
 0
 11
74.12000
 21
101.74000
  0
ARC
  8
Gravur
 62
   7
 39
0.200
  6
CONTINUOUS
 10
74.12301
 20
102.37699
 30
 0
 40
0.63700
 50
-90.27048
 51
0.27048
  0
LINE
  8
Gravur
 62
   7
 39
0.200
  6
CONTINUOUS
 10
74.76000
 20
102.38000
 30
 0
 11
74.76000
 21
100.94000
  0
LINE
  8
Gravur
 62
   7
 39
0.200
  6
CONTINUOUS
 10
74.76000
 20
100.94000
 30
 0
 11
74.76000
 21
99.50000
  0
LINE
  8
Gravur
 62
   7
 39
0.200
  6
CONTINUOUS
 10
64.76000
 20
76.94000
 30
 0
 11
66.00000
 21
76.94000
  0
ARC
  8
Gravur
 62
   7
 39
0.200
  6
CONTINUOUS
 10
66.00301
 20
77.53699
 30
 0
 40
0.59700
 50
-90.28865
 51
0.28865
  0
LINE
  8
Gravur
 62
   7
 39
0.200
  6
CONTINUOUS
 10
66.60000
 20
77.54000
 30
 0
 11
66.60000
 21
77.78000
  0
ARC
  8
Gravur
 62
   7
 39
0.200
  6
CONTINUOUS
 10
66.00301
 20
77.78301
 30
 0
 40
0.59700
 50
-0.28865
 51
90.28865
  0
LINE
  8
Gravur
 62
   7
 39
0.200
  6
CONTINUOUS
 10
66.00000
 20
78.38000
 30
 0
 11
64.76000
 21
78.38000
  0
LINE
  8
Gravur
 62
   7
 39
0.200
  6
CONTINUOUS
 10
64.76000
 20
78.38000
 30
 0
 11
64.76000
 21
76.94000
  0
LINE
  8
Gravur
 62
   7
 39
0.200
  6
CONTINUOUS
 10
64.76000
 20
76.94000
 30
 0
 11
64.76000
 21
75.50000
  0
ARC
  8
Gravur
 62
   7
 39
0.200
  6
CONTINUOUS
 10
68.81082
 20
76.55000
 30
 0
 40
1.76200
 50
169.20549
 51
-169.20549
  0
ARC
  8
Gravur
 62
   7
 39
0.200
  6
CONTINUOUS
 10
67.94000
 20
76.71334
 30
 0
 40
0.87600
 50
370.96753
 51
169.03247
  0
ARC
  8
Gravur
 62
   7
 39
0.200
  6
CONTINUOUS
 10
67.06918
 20
76.55000
 30
 0
 40
1.76200
 50
349.20549
 51
10.79451
  0
ARC
  8
Gravur
 62
   7
 39
0.200
  6
CONTINUOUS
 10
67.94000
 20
76.38666
 30
 0
 40
0.87600
 50
190.96753
 51
-10.96753
  0
LINE
  8
Gravur
 62
   7
 39
0.200
  6
CONTINUOUS
 10
69.28000
 20
77.50000
 30
 0
 11
69.28000
 21
75.50000
  0
LINE
  8
Gravur
 62
   7
 39
0.200
  6
CONTINUOUS
 10
69.28000
 20
75.50000
 30
 0
 11
69.28000
 21
76.70000
  0
ARC
  8
Gravur
 62
   7
 39
0.200
  6
CONTINUOUS
 10
70.17299
 20
76.69696
 30
 0
 40
0.89300
 50
458.56495
 51
179.80489
  0
LINE
  8
Gravur
 62
   7
 39
0.200
  6
CONTINUOUS
 10
70.48000
 20
77.58000
 30
 0
 11
71.20000
 21
77.58000
  0
LINE
  8
Gravur
 62
   7
 39
0.200
  6
CONTINUOUS
 10
71.20000
 20
77.58000
 30
 0
 11
70.80000
 21
77.58000
  0
LINE
  8
Gravur
 62
   7
 39
0.200
  6
CONTINUOUS
 10
70.80000
 20
77.58000
 30
 0
 11
70.80000
 21
78.22000
  0
LINE
  8
Gravur
 62
   7
 39
0.200
  6
CONTINUOUS
 10
70.80000
 20
78.22000
 30
 0
 11
70.80000
 21
75.90000
  0
ARC
  8
Gravur
 62
   7
 39
0.200
  6
CONTINUOUS
 10
71.19799
 20
75.89799
 30
 0
 40
0.39800
 50
179.71135
 51
270.28865
  0
ARC
  8
Gravur
 62
   7
 39
0.200
  6
CONTINUOUS
 10
74.35599
 20
77.66401
 30
 0
 40
0.71600
 50
89.67901
 51
-179.67901
  0
LINE
  8
Gravur
 62
   7
 39
0.200
  6
CONTINUOUS
 10
74.36000
 20
78.38000
 30
 0
 11
74.44000
 21
78.38000
  0
ARC
  8
Gravur
 62
   7
 39
0.200
  6
CONTINUOUS
 10
74.44401
 20
77.66401
 30
 0
 40
0.71600
 50
359.67901
 51
90.32099
  0
ARC
  8
Gravur
 62
   7
 39
0.200
  6
CONTINUOUS
 10
74.52301
 20
77.65699
 30
 0
 40
0.63700
 50
269.72952
 51
0.27048
  0
LINE
  8
Gravur
 62
   7
 39
0.200
  6
CONTINUOUS
 10
74.52000
 20
77.02000
 30
 0
 11
74.28000
 21
77.02000
  0
LINE
  8
Gravur
 62
   7
 39
0.200
  6
CONTINUOUS
 10
74.28000
 20
77.02000
 30
 0
 11
74.52000
 21
77.02000
  0
ARC
  8
Gravur
 62
   7
 39
0.200
  6
CONTINUOUS
 10
74.52401
 20
76.30401
 30
 0
 40
0.71600
 50
359.67901
 51
90.32099
  0
ARC
  8
Gravur
 62
   7
 39
0.200
  6
CONTINUOUS
 10
74.44401
 20
76.29599
 30
 0
 40
0.79600
 50
269.71135
 51
0.28865
  0
LINE
  8
Gravur
 62
   7
 39
0.200
  6
CONTINUOUS
 10
74.44000
 20
75.50000
 30
 0
 11
74.36000
 21
75.50000
  0
ARC
  8
Gravur
 62
   7
 39
0.200
  6
CONTINUOUS
 10
74.35689
 20
76.30099
 30
 0
 40
0.80100
 50
185.80344
 51
-89.77787
  0
LINE
  8
Gravur
 62
   7
 39
0.200
  6
CONTINUOUS
 10
61.50000
 20
51.50000
 30
 0
 11
62.10000
 21
52.94000
  0
LINE
  8
Gravur
 62
   7
 39
0.200
  6
CONTINUOUS
 10
62.10000
 20
52.94000
 30
 0
 11
62.70000
 21
54.38000
  0
LINE
  8
Gravur
 62
   7
 39
0.200
  6
CONTINUOUS
 10
62.70000
 20
54.38000
 30
 0
 11
62.78000
 21
54.38000
  0
LINE
  8
Gravur
 62
   7
 39
0.200
  6
CONTINUOUS
 10
62.78000
 20
54.38000
 30
 0
 11
63.38000
 21
52.94000
  0
LINE
  8
Gravur
 62
   7
 39
0.200
  6
CONTINUOUS
 10
63.38000
 20
52.94000
 30
 0
 11
63.98000
 21
51.50000
  0
LINE
  8
Gravur
 62
   7
 39
0.200
  6
CONTINUOUS
 10
61.90000
 20
52.46000
 30
 0
 11
63.58000
 21
52.46000
  0
LINE
  8
Gravur
 62
   7
 39
0.200
  6
CONTINUOUS
 10
65.46000
 20
54.78000
 30
 0
 11
64.94000
 21
52.90000
  0
LINE
  8
Gravur
 62
   7
 39
0.200
  6
CONTINUOUS
 10
64.94000
 20
52.90000
 30
 0
 11
64.42000
 21
51.02000
  0
LINE
  8
Gravur
 62
   7
 39
0.200
  6
CONTINUOUS
 10
65.90000
 20
51.50000
 30
 0
 11
65.90000
 21
52.94000
  0
LINE
  8
Gravur
 62
   7
 39
0.200
  6
CONTINUOUS
 10
65.90000
 20
52.94000
 30
 0
 11
65.90000
 21
54.38000
  0
LINE
  8
Gravur
 62
   7
 39
0.200
  6
CONTINUOUS
 10
65.90000
 20
54.38000
 30
 0
 11
67.02000
 21
54.38000
  0
ARC
  8
Gravur
 62
   7
 39
0.200
  6
CONTINUOUS
 10
67.02545
 20
53.52102
 30
 0
 40
0.85900
 50
402.37805
 51
90.36319
  0
ARC
  8
Gravur
 62
   7
 39
0.200
  6
CONTINUOUS
 10
66.51502
 20
53.09271
 30
 0
 40
1.52500
 50
360.27402
 51
41.33956
  0
LINE
  8
Gravur
 62
   7
 39
0.200
  6
CONTINUOUS
 10
68.04000
 20
53.10000
 30
 0
 11
68.04000
 21
52.78000
  0
ARC
  8
Gravur
 62
   7
 39
0.200
  6
CONTINUOUS
 10
66.51502
 20
52.78729
 30
 0
 40
1.52500
 50
318.66044
 51
-0.27402
  0
ARC
  8
Gravur
 62
   7
 39
0.200
  6
CONTINUOUS
 10
67.02545
 20
52.35898
 30
 0
 40
0.85900
 50
269.63681
 51
-42.37805
  0
LINE
  8
Gravur
 62
   7
 39
0.200
  6
CONTINUOUS
 10
67.02000
 20
51.50000
 30
 0
 11
65.90000
 21
51.50000
  0
LINE
  8
Gravur
 62
   7
 39
0.200
  6
CONTINUOUS
 10
70.38000
 20
53.74000
 30
 0
 11
70.46000
 21
53.74000
  0
ARC
  8
Gravur
 62
   7
 39
0.200
  6
CONTINUOUS
 10
70.46301
 20
54.37699
 30
 0
 40
0.63700
 50
-90.27048
 51
0.27048
  0
LINE
  8
Gravur
 62
   7
 39
0.200
  6
CONTINUOUS
 10
71.10000
 20
54.38000
 30
 0
 11
71.10000
 21
52.94000
  0
LINE
  8
Gravur
 62
   7
 39
0.200
  6
CONTINUOUS
 10
71.10000
 20
52.94000
 30
 0
 11
71.10000
 21
51.50000
  0
ARC
  8
Gravur
 62
   7
 39
0.200
  6
CONTINUOUS
 10
74.88821
 20
52.94000
 30
 0
 40
3.34600
 50
164.75182
 51
195.24818
  0
ARC
  8
Gravur
 62
   7
 39
0.200
  6
CONTINUOUS
 10
72.42828
 20
52.30696
 30
 0
 40
0.80700
 50
-162.18051
 51
-90.58819
  0
ARC
  8
Gravur
 62
   7
 39
0.200
  6
CONTINUOUS
 10
72.41172
 20
52.30696
 30
 0
 40
0.80700
 50
-89.41181
 51
-17.81949
  0
ARC
  8
Gravur
 62
   7
 39
0.200
  6
CONTINUOUS
 10
69.95179
 20
52.94000
 30
 0
 40
3.34600
 50
-15.24818
 51
15.24818
  0
ARC
  8
Gravur
 62
   7
 39
0.200
  6
CONTINUOUS
 10
72.42000
 20
53.57020
 30
 0
 40
0.80000
 50
18.19487
 51
161.80513
  0
LINE
  8
Gravur
 62
   7
 39
0.200
  6
CONTINUOUS
 10
73.74000
 20
52.78000
 30
 0
 11
75.02000
 21
52.78000
  0
LINE
  8
Gravur
 62
   7
 39
0.200
  6
CONTINUOUS
 10
75.02000
 20
52.78000
 30
 0
 11
76.30000
 21
52.78000
  0
ARC
  8
Gravur
 62
   7
 39
0.200
  6
CONTINUOUS
 10
77.53699
 20
53.74301
 30
 0
 40
0.63700
 50
89.72952
 51
180.27048
  0
LINE
  8
Gravur
 62
   7
 39
0.200
  6
CONTINUOUS
 10
76.90000
 20
53.74000
 30
 0
 11
76.90000
 21
53.66000
  0
ARC
  8
Gravur
 62
   7
 39
0.200
  6
CONTINUOUS
 10
77.53699
 20
53.65699
 30
 0
 40
0.63700
 50
179.72952
 51
270.27048
  0
LINE
  8
Gravur
 62
   7
 39
0.200
  6
CONTINUOUS
 10
77.54000
 20
53.02000
 30
 0
 11
77.78000
 21
53.02000
  0
ARC
  8
Gravur
 62
   7
 39
0.200
  6
CONTINUOUS
 10
77.78401
 20
52.30401
 30
 0
 40
0.71600
 50
359.67901
 51
90.32099
  0
LINE
  8
Gravur
 62
   7
 39
0.200
  6
CONTINUOUS
 10
78.50000
 20
52.30000
 30
 0
 11
78.50000
 21
52.22000
  0
ARC
  8
Gravur
 62
   7
 39
0.200
  6
CONTINUOUS
 10
77.78007
 20
52.22994
 30
 0
 40
0.72000
 50
279.58853
 51
-0.79112
  0
ARC
  8
Gravur
 62
   7
 39
0.200
  6
CONTINUOUS
 10
77.62000
 20
52.98855
 30
 0
 40
1.49500
 50
259.20527
 51
-79.20527
  0
ARC
  8
Gravur
 62
   7
 39
0.200
  6
CONTINUOUS
 10
77.45993
 20
52.22994
 30
 0
 40
0.72000
 50
180.79112
 51
-99.58853
  0
LINE
  8
Gravur
 62
   7
 39
0.200
  6
CONTINUOUS
 10
76.74000
 20
52.22000
 30
 0
 11
76.74000
 21
52.30000
  0
ARC
  8
Gravur
 62
   7
 39
0.200
  6
CONTINUOUS
 10
77.45599
 20
52.30401
 30
 0
 40
0.71600
 50
89.67901
 51
-179.67901
  0
LINE
  8
Gravur
 62
   7
 39
0.200
  6
CONTINUOUS
 10
77.46000
 20
53.02000
 30
 0
 11
77.70000
 21
53.02000
  0
ARC
  8
Gravur
 62
   7
 39
0.200
  6
CONTINUOUS
 10
77.70301
 20
53.65699
 30
 0
 40
0.63700
 50
-90.27048
 51
0.27048
  0
LINE
  8
Gravur
 62
   7
 39
0.200
  6
CONTINUOUS
 10
78.34000
 20
53.66000
 30
 0
 11
78.34000
 21
53.74000
  0
ARC
  8
Gravur
 62
   7
 39
0.200
  6
CONTINUOUS
 10
77.70301
 20
53.74301
 30
 0
 40
0.63700
 50
-0.27048
 51
90.27048
  0
LINE
  8
Gravur
 62
   7
 39
0.200
  6
CONTINUOUS
 10
77.70000
 20
54.38000
 30
 0
 11
77.54000
 21
54.38000
  0
LINE
  8
Gravur
 62
   7
 39
0.200
  6
CONTINUOUS
 10
26.38000
 20
51.50000
 30
 0
 11
26.98000
 21
52.94000
  0
LINE
  8
Gravur
 62
   7
 39
0.200
  6
CONTINUOUS
 10
26.98000
 20
52.94000
 30
 0
 11
27.58000
 21
54.38000
  0
LINE
  8
Gravur
 62
   7
 39
0.200
  6
CONTINUOUS
 10
27.58000
 20
54.38000
 30
 0
 11
27.66000
 21
54.38000
  0
LINE
  8
Gravur
 62
   7
 39
0.200
  6
CONTINUOUS
 10
27.66000
 20
54.38000
 30
 0
 11
28.26000
 21
52.94000
  0
LINE
  8
Gravur
 62
   7
 39
0.200
  6
CONTINUOUS
 10
28.26000
 20
52.94000
 30
 0
 11
28.86000
 21
51.50000
  0
LINE
  8
Gravur
 62
   7
 39
0.200
  6
CONTINUOUS
 10
26.78000
 20
52.46000
 30
 0
 11
28.46000
 21
52.46000
  0
LINE
  8
Gravur
 62
   7
 39
0.200
  6
CONTINUOUS
 10
29.30000
 20
53.50000
 30
 0
 11
29.30000
 21
52.06000
  0
ARC
  8
Gravur
 62
   7
 39
0.200
  6
CONTINUOUS
 10
29.85699
 20
52.05699
 30
 0
 40
0.55700
 50
179.69057
 51
270.30943
  0
ARC
  8
Gravur
 62
   7
 39
0.200
  6
CONTINUOUS
 10
29.86501
 20
52.37499
 30
 0
 40
0.87500
 50
-90.32835
 51
0.32835
  0
LINE
  8
Gravur
 62
   7
 39
0.200
  6
CONTINUOUS
 10
30.74000
 20
52.38000
 30
 0
 11
30.74000
 21
53.50000
  0
LINE
  8
Gravur
 62
   7
 39
0.200
  6
CONTINUOUS
 10
30.74000
 20
53.50000
 30
 0
 11
30.74000
 21
51.50000
  0
LINE
  8
Gravur
 62
   7
 39
0.200
  6
CONTINUOUS
 10
31.42000
 20
53.50000
 30
 0
 11
32.94000
 21
51.50000
  0
LINE
  8
Gravur
 62
   7
 39
0.200
  6
CONTINUOUS
 10
31.18000
 20
51.50000
 30
 0
 11
32.86000
 21
53.50000
  0
LINE
  8
Gravur
 62
   7
 39
0.200
  6
CONTINUOUS
 10
34.42000
 20
54.78000
 30
 0
 11
33.90000
 21
52.90000
  0
LINE
  8
Gravur
 62
   7
 39
0.200
  6
CONTINUOUS
 10
33.90000
 20
52.90000
 30
 0
 11
33.38000
 21
51.02000
  0
LINE
  8
Gravur
 62
   7
 39
0.200
  6
CONTINUOUS
 10
34.86000
 20
54.38000
 30
 0
 11
34.86000
 21
52.94000
  0
LINE
  8
Gravur
 62
   7
 39
0.200
  6
CONTINUOUS
 10
34.86000
 20
52.94000
 30
 0
 11
34.86000
 21
51.50000
  0
ARC
  8
Gravur
 62
   7
 39
0.200
  6
CONTINUOUS
 10
36.01093
 20
52.28972
 30
 0
 40
0.71100
 50
179.17119
 51
230.63834
  0
ARC
  8
Gravur
 62
   7
 39
0.200
  6
CONTINUOUS
 10
36.36567
 20
52.72819
 30
 0
 40
1.27500
 50
-129.19027
 51
-64.22940
  0
ARC
  8
Gravur
 62
   7
 39
0.200
  6
CONTINUOUS
 10
36.62707
 20
52.23005
 30
 0
 40
0.71300
 50
-65.74236
 51
-0.80741
  0
ARC
  8
Gravur
 62
   7
 39
0.200
  6
CONTINUOUS
 10
36.69300
 20
52.22061
 30
 0
 40
0.64700
 50
-0.05430
 51
73.20036
  0
LINE
  8
Gravur
 62
   7
 39
0.200
  6
CONTINUOUS
 10
36.88000
 20
52.84000
 30
 0
 11
35.76000
 21
53.08000
  0
ARC
  8
Gravur
 62
   7
 39
0.200
  6
CONTINUOUS
 10
35.94700
 20
53.69939
 30
 0
 40
0.64700
 50
179.94570
 51
-106.79964
  0
ARC
  8
Gravur
 62
   7
 39
0.200
  6
CONTINUOUS
 10
36.01293
 20
53.68995
 30
 0
 40
0.71300
 50
474.25764
 51
179.19259
  0
ARC
  8
Gravur
 62
   7
 39
0.200
  6
CONTINUOUS
 10
36.27433
 20
53.19181
 30
 0
 40
1.27500
 50
410.80973
 51
115.77060
  0
ARC
  8
Gravur
 62
   7
 39
0.200
  6
CONTINUOUS
 10
36.62907
 20
53.63028
 30
 0
 40
0.71100
 50
359.17119
 51
50.63834
  0
LINE
  8
Gravur
 62
   7
 39
0.200
  6
CONTINUOUS
 10
37.78000
 20
52.94000
 30
 0
 11
39.02000
 21
52.94000
  0
ARC
  8
Gravur
 62
   7
 39
0.200
  6
CONTINUOUS
 10
39.02301
 20
53.53699
 30
 0
 40
0.59700
 50
-90.28865
 51
0.28865
  0
LINE
  8
Gravur
 62
   7
 39
0.200
  6
CONTINUOUS
 10
39.62000
 20
53.54000
 30
 0
 11
39.62000
 21
53.78000
  0
ARC
  8
Gravur
 62
   7
 39
0.200
  6
CONTINUOUS
 10
39.02301
 20
53.78301
 30
 0
 40
0.59700
 50
-0.28865
 51
90.28865
  0
LINE
  8
Gravur
 62
   7
 39
0.200
  6
CONTINUOUS
 10
39.02000
 20
54.38000
 30
 0
 11
37.78000
 21
54.38000
  0
LINE
  8
Gravur
 62
   7
 39
0.200
  6
CONTINUOUS
 10
37.78000
 20
54.38000
 30
 0
 11
37.78000
 21
52.94000
  0
LINE
  8
Gravur
 62
   7
 39
0.200
  6
CONTINUOUS
 10
37.78000
 20
52.94000
 30
 0
 11
37.78000
 21
51.50000
  0
LINE
  8
Gravur
 62
   7
 39
0.200
  6
CONTINUOUS
 10
65.57200
 20
107.81800
 30
 0
 11
66.08200
 21
109.04200
  0
LINE
  8
Gravur
 62
   7
 39
0.200
  6
CONTINUOUS
 10
66.08200
 20
109.04200
 30
 0
 11
66.59200
 21
110.26600
  0
LINE
  8
Gravur
 62
   7
 39
0.200
  6
CONTINUOUS
 10
66.59200
 20
110.26600
 30
 0
 11
66.66000
 21
110.26600
  0
LINE
  8
Gravur
 62
   7
 39
0.200
  6
CONTINUOUS
 10
66.66000
 20
110.26600
 30
 0
 11
67.17000
 21
109.04200
  0
LINE
  8
Gravur
 62
   7
 39
0.200
  6
CONTINUOUS
 10
67.17000
 20
109.04200
 30
 0
 11
67.68000
 21
107.81800
  0
LINE
  8
Gravur
 62
   7
 39
0.200
  6
CONTINUOUS
 10
65.91200
 20
108.63400
 30
 0
 11
67.34000
 21
108.63400
  0
ARC
  8
Gravur
 62
   7
 39
0.200
  6
CONTINUOUS
 10
68.81869
 20
108.85091
 30
 0
 40
0.74400
 50
16.24160
 51
169.14697
  0
ARC
  8
Gravur
 62
   7
 39
0.200
  6
CONTINUOUS
 10
69.55950
 20
108.71050
 30
 0
 40
1.49800
 50
169.20768
 51
190.79232
  0
ARC
  8
Gravur
 62
   7
 39
0.200
  6
CONTINUOUS
 10
68.82087
 20
108.56387
 30
 0
 40
0.74500
 50
-169.64856
 51
-17.08437
  0
LINE
  8
Gravur
 62
   7
 39
0.200
  6
CONTINUOUS
 10
69.89000
 20
109.58600
 30
 0
 11
70.50200
 21
109.58600
  0
LINE
  8
Gravur
 62
   7
 39
0.200
  6
CONTINUOUS
 10
70.50200
 20
109.58600
 30
 0
 11
70.16200
 21
109.58600
  0
LINE
  8
Gravur
 62
   7
 39
0.200
  6
CONTINUOUS
 10
70.16200
 20
109.58600
 30
 0
 11
70.16200
 21
110.13000
  0
LINE
  8
Gravur
 62
   7
 39
0.200
  6
CONTINUOUS
 10
70.16200
 20
110.13000
 30
 0
 11
70.16200
 21
108.15800
  0
ARC
  8
Gravur
 62
   7
 39
0.200
  6
CONTINUOUS
 10
70.49999
 20
108.15599
 30
 0
 40
0.33800
 50
179.65996
 51
270.34004
  0
LINE
  8
Gravur
 62
   7
 39
0.200
  6
CONTINUOUS
 10
70.87600
 20
110.48700
 30
 0
 11
70.87600
 21
110.35100
  0
LINE
  8
Gravur
 62
   7
 39
0.200
  6
CONTINUOUS
 10
70.87600
 20
109.51800
 30
 0
 11
70.87600
 21
107.81800
  0
LINE
  8
Gravur
 62
   7
 39
0.200
  6
CONTINUOUS
 10
71.25000
 20
109.51800
 30
 0
 11
71.86200
 21
107.81800
  0
LINE
  8
Gravur
 62
   7
 39
0.200
  6
CONTINUOUS
 10
71.86200
 20
107.81800
 30
 0
 11
71.93000
 21
107.81800
  0
LINE
  8
Gravur
 62
   7
 39
0.200
  6
CONTINUOUS
 10
71.93000
 20
107.81800
 30
 0
 11
72.54200
 21
109.51800
  0
LINE
  8
Gravur
 62
   7
 39
0.200
  6
CONTINUOUS
 10
72.91600
 20
110.48700
 30
 0
 11
72.91600
 21
110.35100
  0
LINE
  8
Gravur
 62
   7
 39
0.200
  6
CONTINUOUS
 10
72.91600
 20
109.51800
 30
 0
 11
72.91600
 21
107.81800
  0
LINE
  8
Gravur
 62
   7
 39
0.200
  6
CONTINUOUS
 10
73.29000
 20
109.58600
 30
 0
 11
73.90200
 21
109.58600
  0
LINE
  8
Gravur
 62
   7
 39
0.200
  6
CONTINUOUS
 10
73.90200
 20
109.58600
 30
 0
 11
73.56200
 21
109.58600
  0
LINE
  8
Gravur
 62
   7
 39
0.200
  6
CONTINUOUS
 10
73.56200
 20
109.58600
 30
 0
 11
73.56200
 21
110.13000
  0
LINE
  8
Gravur
 62
   7
 39
0.200
  6
CONTINUOUS
 10
73.56200
 20
110.13000
 30
 0
 11
73.56200
 21
108.15800
  0
ARC
  8
Gravur
 62
   7
 39
0.200
  6
CONTINUOUS
 10
73.89999
 20
108.15599
 30
 0
 40
0.33800
 50
179.65996
 51
270.34004
  0
LINE
  8
Gravur
 62
   7
 39
0.200
  6
CONTINUOUS
 10
74.27600
 20
109.51800
 30
 0
 11
75.02400
 21
107.75000
  0
ARC
  8
Gravur
 62
   7
 39
0.200
  6
CONTINUOUS
 10
74.57826
 20
107.50498
 30
 0
 40
0.35000
 50
-89.38810
 51
-27.75277
  0
LINE
  8
Gravur
 62
   7
 39
0.200
  6
CONTINUOUS
 10
74.88800
 20
107.34200
 30
 0
 11
75.26200
 21
108.43000
  0
LINE
  8
Gravur
 62
   7
 39
0.200
  6
CONTINUOUS
 10
75.26200
 20
108.43000
 30
 0
 11
75.63600
 21
109.51800
  0
LINE
  8
Gravur
 62
   7
 39
0.200
  6
CONTINUOUS
 10
45.94000
 20
116.45600
 30
 0
 11
46.77200
 21
116.45600
  0
ARC
  8
Gravur
 62
   7
 39
0.200
  6
CONTINUOUS
 10
43.37168
 20
116.27757
 30
 0
 40
3.40500
 50
3.00385
 51
8.41734
  0
ARC
  8
Gravur
 62
   7
 39
0.200
  6
CONTINUOUS
 10
46.13471
 20
116.74671
 30
 0
 40
0.60600
 50
2.77053
 51
87.22947
  0
ARC
  8
Gravur
 62
   7
 39
0.200
  6
CONTINUOUS
 10
45.17200
 20
96.36643
 30
 0
 40
21.00900
 50
87.29361
 51
92.70639
  0
ARC
  8
Gravur
 62
   7
 39
0.200
  6
CONTINUOUS
 10
44.22587
 20
116.76379
 30
 0
 40
0.59000
 50
94.45935
 51
178.81380
  0
ARC
  8
Gravur
 62
   7
 39
0.200
  6
CONTINUOUS
 10
55.14415
 20
116.23200
 30
 0
 40
11.52100
 50
177.29359
 51
182.70641
  0
ARC
  8
Gravur
 62
   7
 39
0.200
  6
CONTINUOUS
 10
44.22587
 20
115.70021
 30
 0
 40
0.59000
 50
-178.81380
 51
-94.45935
  0
ARC
  8
Gravur
 62
   7
 39
0.200
  6
CONTINUOUS
 10
45.17200
 20
136.09757
 30
 0
 40
21.00900
 50
-92.70639
 51
-87.29361
  0
ARC
  8
Gravur
 62
   7
 39
0.200
  6
CONTINUOUS
 10
46.13471
 20
115.71729
 30
 0
 40
0.60600
 50
-87.22947
 51
-2.77053
  0
ARC
  8
Gravur
 62
   7
 39
0.200
  6
CONTINUOUS
 10
43.37168
 20
116.18643
 30
 0
 40
3.40500
 50
-8.41734
 51
-3.00385
  0
LINE
  8
Gravur
 62
   7
 39
0.200
  6
CONTINUOUS
 10
46.77200
 20
116.00800
 30
 0
 11
45.94000
 21
116.00800
  0
ARC
  8
Gravur
 62
   7
 39
0.200
  6
CONTINUOUS
 10
45.65818
 20
116.03382
 30
 0
 40
0.28300
 50
275.23470
 51
-5.23470
  0
ARC
  8
Gravur
 62
   7
 39
0.200
  6
CONTINUOUS
 10
45.15600
 20
121.32705
 30
 0
 40
5.60000
 50
264.58979
 51
-84.58979
  0
ARC
  8
Gravur
 62
   7
 39
0.200
  6
CONTINUOUS
 10
44.65002
 20
115.99802
 30
 0
 40
0.24700
 50
185.11395
 51
-95.11395
  0
ARC
  8
Gravur
 62
   7
 39
0.200
  6
CONTINUOUS
 10
47.10690
 20
116.23200
 30
 0
 40
2.71500
 50
174.58949
 51
-174.58949
  0
ARC
  8
Gravur
 62
   7
 39
0.200
  6
CONTINUOUS
 10
44.65002
 20
116.46598
 30
 0
 40
0.24700
 50
455.11395
 51
174.88605
  0
ARC
  8
Gravur
 62
   7
 39
0.200
  6
CONTINUOUS
 10
45.15600
 20
111.13695
 30
 0
 40
5.60000
 50
444.58979
 51
95.41021
  0
ARC
  8
Gravur
 62
   7
 39
0.200
  6
CONTINUOUS
 10
45.65818
 20
116.43018
 30
 0
 40
0.28300
 50
365.23470
 51
84.76530
  0
LINE
  8
Gravur
 62
   7
 39
0.200
  6
CONTINUOUS
 10
48.11600
 20
118.31200
 30
 0
 11
49.01200
 21
118.31200
  0
LINE
  8
Gravur
 62
   7
 39
0.200
  6
CONTINUOUS
 10
49.01200
 20
118.31200
 30
 0
 11
48.37200
 21
117.67200
  0
LINE
  8
Gravur
 62
   7
 39
0.200
  6
CONTINUOUS
 10
48.37200
 20
117.67200
 30
 0
 11
47.73200
 21
117.67200
  0
LINE
  8
Gravur
 62
   7
 39
0.200
  6
CONTINUOUS
 10
47.73200
 20
117.67200
 30
 0
 11
48.11600
 21
118.31200
  0
LINE
  8
Gravur
 62
   7
 39
0.200
  6
CONTINUOUS
 10
50.35600
 20
117.86400
 30
 0
 11
51.18800
 21
117.86400
  0
LINE
  8
Gravur
 62
   7
 39
0.200
  6
CONTINUOUS
 10
51.18800
 20
117.86400
 30
 0
 11
51.18800
 21
117.35200
  0
LINE
  8
Gravur
 62
   7
 39
0.200
  6
CONTINUOUS
 10
51.18800
 20
117.35200
 30
 0
 11
52.53200
 21
117.35200
  0
LINE
  8
Gravur
 62
   7
 39
0.200
  6
CONTINUOUS
 10
52.53200
 20
117.35200
 30
 0
 11
52.53200
 21
116.77600
  0
LINE
  8
Gravur
 62
   7
 39
0.200
  6
CONTINUOUS
 10
52.53200
 20
116.77600
 30
 0
 11
51.18800
 21
116.77600
  0
LINE
  8
Gravur
 62
   7
 39
0.200
  6
CONTINUOUS
 10
51.18800
 20
116.77600
 30
 0
 11
51.18800
 21
116.00800
  0
ARC
  8
Gravur
 62
   7
 39
0.200
  6
CONTINUOUS
 10
51.44500
 20
116.00687
 30
 0
 40
0.25700
 50
179.74871
 51
262.62314
  0
ARC
  8
Gravur
 62
   7
 39
0.200
  6
CONTINUOUS
 10
51.50800
 20
116.51095
 30
 0
 40
0.76500
 50
-97.20906
 51
-82.79094
  0
ARC
  8
Gravur
 62
   7
 39
0.200
  6
CONTINUOUS
 10
51.57100
 20
116.00687
 30
 0
 40
0.25700
 50
-82.62314
 51
0.25129
  0
LINE
  8
Gravur
 62
   7
 39
0.200
  6
CONTINUOUS
 10
51.82800
 20
116.00800
 30
 0
 11
51.82800
 21
116.13600
  0
LINE
  8
Gravur
 62
   7
 39
0.200
  6
CONTINUOUS
 10
51.82800
 20
116.13600
 30
 0
 11
52.66000
 21
116.13600
  0
LINE
  8
Gravur
 62
   7
 39
0.200
  6
CONTINUOUS
 10
52.66000
 20
116.13600
 30
 0
 11
52.66000
 21
115.75200
  0
ARC
  8
Gravur
 62
   7
 39
0.200
  6
CONTINUOUS
 10
52.02201
 20
115.74929
 30
 0
 40
0.63800
 50
272.69464
 51
0.24296
  0
ARC
  8
Gravur
 62
   7
 39
0.200
  6
CONTINUOUS
 10
51.50800
 20
126.62015
 30
 0
 40
11.52100
 50
267.29359
 51
-87.29359
  0
ARC
  8
Gravur
 62
   7
 39
0.200
  6
CONTINUOUS
 10
50.99399
 20
115.74929
 30
 0
 40
0.63800
 50
179.75704
 51
-92.69464
  0
LINE
  8
Gravur
 62
   7
 39
0.200
  6
CONTINUOUS
 10
50.35600
 20
115.75200
 30
 0
 11
50.35600
 21
116.77600
  0
LINE
  8
Gravur
 62
   7
 39
0.200
  6
CONTINUOUS
 10
50.35600
 20
116.77600
 30
 0
 11
49.97200
 21
116.77600
  0
LINE
  8
Gravur
 62
   7
 39
0.200
  6
CONTINUOUS
 10
49.97200
 20
116.77600
 30
 0
 11
49.97200
 21
117.35200
  0
LINE
  8
Gravur
 62
   7
 39
0.200
  6
CONTINUOUS
 10
49.97200
 20
117.35200
 30
 0
 11
50.35600
 21
117.35200
  0
LINE
  8
Gravur
 62
   7
 39
0.200
  6
CONTINUOUS
 10
50.35600
 20
117.35200
 30
 0
 11
50.35600
 21
117.86400
  0
LINE
  8
Gravur
 62
   7
 39
0.200
  6
CONTINUOUS
 10
58.83600
 20
117.60800
 30
 0
 11
58.16400
 21
116.26400
  0
LINE
  8
Gravur
 62
   7
 39
0.200
  6
CONTINUOUS
 10
58.16400
 20
116.26400
 30
 0
 11
59.63600
 21
116.26400
  0
LINE
  8
Gravur
 62
   7
 39
0.200
  6
CONTINUOUS
 10
59.63600
 20
116.26400
 30
 0
 11
58.96400
 21
117.60800
  0
LINE
  8
Gravur
 62
   7
 39
0.200
  6
CONTINUOUS
 10
58.96400
 20
117.60800
 30
 0
 11
58.83600
 21
117.60800
  0
LINE
  8
Gravur
 62
   7
 39
0.200
  6
CONTINUOUS
 10
58.19600
 20
118.31200
 30
 0
 11
59.60400
 21
118.31200
  0
LINE
  8
Gravur
 62
   7
 39
0.200
  6
CONTINUOUS
 10
59.60400
 20
118.31200
 30
 0
 11
61.30000
 21
115.11200
  0
LINE
  8
Gravur
 62
   7
 39
0.200
  6
CONTINUOUS
 10
61.30000
 20
115.11200
 30
 0
 11
60.21200
 21
115.11200
  0
LINE
  8
Gravur
 62
   7
 39
0.200
  6
CONTINUOUS
 10
60.21200
 20
115.11200
 30
 0
 11
59.98800
 21
115.56000
  0
LINE
  8
Gravur
 62
   7
 39
0.200
  6
CONTINUOUS
 10
59.98800
 20
115.56000
 30
 0
 11
57.81200
 21
115.56000
  0
LINE
  8
Gravur
 62
   7
 39
0.200
  6
CONTINUOUS
 10
57.81200
 20
115.56000
 30
 0
 11
57.58800
 21
115.11200
  0
LINE
  8
Gravur
 62
   7
 39
0.200
  6
CONTINUOUS
 10
57.58800
 20
115.11200
 30
 0
 11
56.50000
 21
115.11200
  0
LINE
  8
Gravur
 62
   7
 39
0.200
  6
CONTINUOUS
 10
56.50000
 20
115.11200
 30
 0
 11
58.19600
 21
118.31200
  0
LINE
  8
Gravur
 62
   7
 39
0.200
  6
CONTINUOUS
 10
63.15600
 20
117.60800
 30
 0
 11
63.15600
 21
115.81600
  0
LINE
  8
Gravur
 62
   7
 39
0.200
  6
CONTINUOUS
 10
63.15600
 20
115.81600
 30
 0
 11
65.14000
 21
115.81600
  0
ARC
  8
Gravur
 62
   7
 39
0.200
  6
CONTINUOUS
 10
65.14201
 20
116.19799
 30
 0
 40
0.38200
 50
-90.30077
 51
0.30077
  0
LINE
  8
Gravur
 62
   7
 39
0.200
  6
CONTINUOUS
 10
65.52400
 20
116.20000
 30
 0
 11
65.52400
 21
117.22400
  0
ARC
  8
Gravur
 62
   7
 39
0.200
  6
CONTINUOUS
 10
65.14201
 20
117.22601
 30
 0
 40
0.38200
 50
-0.30077
 51
90.30077
  0
LINE
  8
Gravur
 62
   7
 39
0.200
  6
CONTINUOUS
 10
65.14000
 20
117.60800
 30
 0
 11
63.15600
 21
117.60800
  0
LINE
  8
Gravur
 62
   7
 39
0.200
  6
CONTINUOUS
 10
62.26000
 20
118.31200
 30
 0
 11
62.26000
 21
115.11200
  0
LINE
  8
Gravur
 62
   7
 39
0.200
  6
CONTINUOUS
 10
62.26000
 20
115.11200
 30
 0
 11
65.71600
 21
115.11200
  0
ARC
  8
Gravur
 62
   7
 39
0.200
  6
CONTINUOUS
 10
65.72001
 20
115.81199
 30
 0
 40
0.70000
 50
-90.32835
 51
0.32835
  0
LINE
  8
Gravur
 62
   7
 39
0.200
  6
CONTINUOUS
 10
66.42000
 20
115.81600
 30
 0
 11
66.42000
 21
117.60800
  0
ARC
  8
Gravur
 62
   7
 39
0.200
  6
CONTINUOUS
 10
65.71300
 20
117.60560
 30
 0
 40
0.70700
 50
0.19489
 51
92.35117
  0
LINE
  8
Gravur
 62
   7
 39
0.200
  6
CONTINUOUS
 10
65.68400
 20
118.31200
 30
 0
 11
62.26000
 21
118.31200
  0
LINE
  8
Gravur
 62
   7
 39
0.200
  6
CONTINUOUS
 10
69.71600
 20
117.60800
 30
 0
 11
69.04400
 21
116.26400
  0
LINE
  8
Gravur
 62
   7
 39
0.200
  6
CONTINUOUS
 10
69.04400
 20
116.26400
 30
 0
 11
70.51600
 21
116.26400
  0
LINE
  8
Gravur
 62
   7
 39
0.200
  6
CONTINUOUS
 10
70.51600
 20
116.26400
 30
 0
 11
69.84400
 21
117.60800
  0
LINE
  8
Gravur
 62
   7
 39
0.200
  6
CONTINUOUS
 10
69.84400
 20
117.60800
 30
 0
 11
69.71600
 21
117.60800
  0
LINE
  8
Gravur
 62
   7
 39
0.200
  6
CONTINUOUS
 10
69.07600
 20
118.31200
 30
 0
 11
70.48400
 21
118.31200
  0
LINE
  8
Gravur
 62
   7
 39
0.200
  6
CONTINUOUS
 10
70.48400
 20
118.31200
 30
 0
 11
72.18000
 21
115.11200
  0
LINE
  8
Gravur
 62
   7
 39
0.200
  6
CONTINUOUS
 10
72.18000
 20
115.11200
 30
 0
 11
71.09200
 21
115.11200
  0
LINE
  8
Gravur
 62
   7
 39
0.200
  6
CONTINUOUS
 10
71.09200
 20
115.11200
 30
 0
 11
70.86800
 21
115.56000
  0
LINE
  8
Gravur
 62
   7
 39
0.200
  6
CONTINUOUS
 10
70.86800
 20
115.56000
 30
 0
 11
68.69200
 21
115.56000
  0
LINE
  8
Gravur
 62
   7
 39
0.200
  6
CONTINUOUS
 10
68.69200
 20
115.56000
 30
 0
 11
68.46800
 21
115.11200
  0
LINE
  8
Gravur
 62
   7
 39
0.200
  6
CONTINUOUS
 10
68.46800
 20
115.11200
 30
 0
 11
67.38000
 21
115.11200
  0
LINE
  8
Gravur
 62
   7
 39
0.200
  6
CONTINUOUS
 10
67.38000
 20
115.11200
 30
 0
 11
69.07600
 21
118.31200
  0
LINE
  8
Gravur
 62
   7
 39
0.200
  6
CONTINUOUS
 10
73.14000
 20
116.39200
 30
 0
 11
75.82800
 21
116.39200
  0
LINE
  8
Gravur
 62
   7
 39
0.200
  6
CONTINUOUS
 10
75.82800
 20
116.39200
 30
 0
 11
75.82800
 21
115.91200
  0
LINE
  8
Gravur
 62
   7
 39
0.200
  6
CONTINUOUS
 10
75.82800
 20
115.91200
 30
 0
 11
73.14000
 21
115.91200
  0
LINE
  8
Gravur
 62
   7
 39
0.200
  6
CONTINUOUS
 10
73.14000
 20
115.91200
 30
 0
 11
73.14000
 21
116.39200
  0
LINE
  8
Gravur
 62
   7
 39
0.200
  6
CONTINUOUS
 10
76.78800
 20
118.31200
 30
 0
 11
76.78800
 21
115.11200
  0
LINE
  8
Gravur
 62
   7
 39
0.200
  6
CONTINUOUS
 10
76.78800
 20
115.11200
 30
 0
 11
77.68400
 21
115.11200
  0
LINE
  8
Gravur
 62
   7
 39
0.200
  6
CONTINUOUS
 10
77.68400
 20
115.11200
 30
 0
 11
77.68400
 21
118.31200
  0
LINE
  8
Gravur
 62
   7
 39
0.200
  6
CONTINUOUS
 10
77.68400
 20
118.31200
 30
 0
 11
76.78800
 21
118.31200
  0
LINE
  8
Gravur
 62
   7
 39
0.200
  6
CONTINUOUS
 10
79.54000
 20
117.19200
 30
 0
 11
79.54000
 21
116.23200
  0
ARC
  8
Gravur
 62
   7
 39
0.200
  6
CONTINUOUS
 10
79.92799
 20
116.23433
 30
 0
 40
0.38800
 50
-179.65638
 51
-95.32273
  0
ARC
  8
Gravur
 62
   7
 39
0.200
  6
CONTINUOUS
 10
80.72400
 20
124.63369
 30
 0
 40
8.82500
 50
-95.40974
 51
-84.59026
  0
ARC
  8
Gravur
 62
   7
 39
0.200
  6
CONTINUOUS
 10
81.52001
 20
116.23433
 30
 0
 40
0.38800
 50
-84.67727
 51
-0.34362
  0
LINE
  8
Gravur
 62
   7
 39
0.200
  6
CONTINUOUS
 10
81.90800
 20
116.23200
 30
 0
 11
81.90800
 21
117.19200
  0
ARC
  8
Gravur
 62
   7
 39
0.200
  6
CONTINUOUS
 10
81.52001
 20
117.18967
 30
 0
 40
0.38800
 50
0.34362
 51
84.67727
  0
ARC
  8
Gravur
 62
   7
 39
0.200
  6
CONTINUOUS
 10
80.72400
 20
108.79031
 30
 0
 40
8.82500
 50
84.59026
 51
95.40974
  0
ARC
  8
Gravur
 62
   7
 39
0.200
  6
CONTINUOUS
 10
79.92799
 20
117.18967
 30
 0
 40
0.38800
 50
95.32273
 51
179.65638
  0
LINE
  8
Gravur
 62
   7
 39
0.200
  6
CONTINUOUS
 10
78.64400
 20
117.57600
 30
 0
 11
78.64400
 21
115.84800
  0
ARC
  8
Gravur
 62
   7
 39
0.200
  6
CONTINUOUS
 10
79.35200
 20
115.84873
 30
 0
 40
0.70800
 50
-179.94117
 51
-95.51145
  0
ARC
  8
Gravur
 62
   7
 39
0.200
  6
CONTINUOUS
 10
80.72400
 20
130.34997
 30
 0
 40
15.27400
 50
-95.40976
 51
-84.59024
  0
ARC
  8
Gravur
 62
   7
 39
0.200
  6
CONTINUOUS
 10
82.09600
 20
115.84873
 30
 0
 40
0.70800
 50
-84.48855
 51
-0.05883
  0
LINE
  8
Gravur
 62
   7
 39
0.200
  6
CONTINUOUS
 10
82.80400
 20
115.84800
 30
 0
 11
82.80400
 21
117.57600
  0
ARC
  8
Gravur
 62
   7
 39
0.200
  6
CONTINUOUS
 10
82.09600
 20
117.57527
 30
 0
 40
0.70800
 50
0.05883
 51
84.48855
  0
ARC
  8
Gravur
 62
   7
 39
0.200
  6
CONTINUOUS
 10
80.72400
 20
103.07403
 30
 0
 40
15.27400
 50
84.59024
 51
95.40976
  0
ARC
  8
Gravur
 62
   7
 39
0.200
  6
CONTINUOUS
 10
79.35200
 20
117.57527
 30
 0
 40
0.70800
 50
95.51145
 51
179.94117
  0
ARC
  8
Kontur
 62
   7
 39
0.200
  6
CONTINUOUS
 10
25.49904
 20
22.25000
 30
 0
 40
2.50000
 50
90.00093
 51
189.99720
  0
LINE
  8
Kontur
 62
   7
 39
0.200
  6
CONTINUOUS
 10
23.03700
 20
21.81600
 30
 0
 11
24.18400
 21
15.31600
  0
ARC
  8
Kontur
 62
   7
 39
0.200
  6
CONTINUOUS
 10
26.64604
 20
15.75000
 30
 0
 40
2.50000
 50
-170.00280
 51
-90.00093
  0
LINE
  8
Kontur
 62
   7
 39
0.200
  6
CONTINUOUS
 10
26.64600
 20
13.25000
 30
 0
 11
39.35400
 21
13.25000
  0
ARC
  8
Kontur
 62
   7
 39
0.200
  6
CONTINUOUS
 10
39.35396
 20
15.75000
 30
 0
 40
2.50000
 50
-89.99907
 51
-9.99720
  0
LINE
  8
Kontur
 62
   7
 39
0.200
  6
CONTINUOUS
 10
41.81600
 20
15.31600
 30
 0
 11
42.96300
 21
21.81600
  0
ARC
  8
Kontur
 62
   7
 39
0.200
  6
CONTINUOUS
 10
40.50096
 20
22.25000
 30
 0
 40
2.50000
 50
-9.99720
 51
89.99907
  0
LINE
  8
Kontur
 62
   7
 39
0.200
  6
CONTINUOUS
 10
40.50100
 20
24.75000
 30
 0
 11
25.49900
 21
24.75000
  0
CIRCLE
  8
Kontur
 62
   7
 39
0.200
  6
CONTINUOUS
 10
45.50000
 20
19.00000
 30
 0
 40
1.60000
  0
CIRCLE
  8
Kontur
 62
   7
 39
0.200
  6
CONTINUOUS
 10
20.50000
 20
19.00000
 30
 0
 40
1.60000
  0
ARC
  8
Kontur
 62
   7
 39
0.200
  6
CONTINUOUS
 10
25.49904
 20
46.25000
 30
 0
 40
2.50000
 50
90.00093
 51
189.99720
  0
LINE
  8
Kontur
 62
   7
 39
0.200
  6
CONTINUOUS
 10
23.03700
 20
45.81600
 30
 0
 11
24.18400
 21
39.31600
  0
ARC
  8
Kontur
 62
   7
 39
0.200
  6
CONTINUOUS
 10
26.64604
 20
39.75000
 30
 0
 40
2.50000
 50
-170.00280
 51
-90.00093
  0
LINE
  8
Kontur
 62
   7
 39
0.200
  6
CONTINUOUS
 10
26.64600
 20
37.25000
 30
 0
 11
39.35400
 21
37.25000
  0
ARC
  8
Kontur
 62
   7
 39
0.200
  6
CONTINUOUS
 10
39.35396
 20
39.75000
 30
 0
 40
2.50000
 50
-89.99907
 51
-9.99720
  0
LINE
  8
Kontur
 62
   7
 39
0.200
  6
CONTINUOUS
 10
41.81600
 20
39.31600
 30
 0
 11
42.96300
 21
45.81600
  0
ARC
  8
Kontur
 62
   7
 39
0.200
  6
CONTINUOUS
 10
40.50096
 20
46.25000
 30
 0
 40
2.50000
 50
-9.99720
 51
89.99907
  0
LINE
  8
Kontur
 62
   7
 39
0.200
  6
CONTINUOUS
 10
40.50100
 20
48.75000
 30
 0
 11
25.49900
 21
48.75000
  0
CIRCLE
  8
Kontur
 62
   7
 39
0.200
  6
CONTINUOUS
 10
45.50000
 20
43.00000
 30
 0
 40
1.60000
  0
CIRCLE
  8
Kontur
 62
   7
 39
0.200
  6
CONTINUOUS
 10
20.50000
 20
43.00000
 30
 0
 40
1.60000
  0
ARC
  8
Kontur
 62
   7
 39
0.200
  6
CONTINUOUS
 10
25.49904
 20
70.25000
 30
 0
 40
2.50000
 50
90.00093
 51
189.99720
  0
LINE
  8
Kontur
 62
   7
 39
0.200
  6
CONTINUOUS
 10
23.03700
 20
69.81600
 30
 0
 11
24.18400
 21
63.31600
  0
ARC
  8
Kontur
 62
   7
 39
0.200
  6
CONTINUOUS
 10
26.64604
 20
63.75000
 30
 0
 40
2.50000
 50
-170.00280
 51
-90.00093
  0
LINE
  8
Kontur
 62
   7
 39
0.200
  6
CONTINUOUS
 10
26.64600
 20
61.25000
 30
 0
 11
39.35400
 21
61.25000
  0
ARC
  8
Kontur
 62
   7
 39
0.200
  6
CONTINUOUS
 10
39.35396
 20
63.75000
 30
 0
 40
2.50000
 50
-89.99907
 51
-9.99720
  0
LINE
  8
Kontur
 62
   7
 39
0.200
  6
CONTINUOUS
 10
41.81600
 20
63.31600
 30
 0
 11
42.96300
 21
69.81600
  0
ARC
  8
Kontur
 62
   7
 39
0.200
  6
CONTINUOUS
 10
40.50096
 20
70.25000
 30
 0
 40
2.50000
 50
-9.99720
 51
89.99907
  0
LINE
  8
Kontur
 62
   7
 39
0.200
  6
CONTINUOUS
 10
40.50100
 20
72.75000
 30
 0
 11
25.49900
 21
72.75000
  0
CIRCLE
  8
Kontur
 62
   7
 39
0.200
  6
CONTINUOUS
 10
45.50000
 20
67.00000
 30
 0
 40
1.60000
  0
CIRCLE
  8
Kontur
 62
   7
 39
0.200
  6
CONTINUOUS
 10
20.50000
 20
67.00000
 30
 0
 40
1.60000
  0
ARC
  8
Kontur
 62
   7
 39
0.200
  6
CONTINUOUS
 10
25.49904
 20
94.25000
 30
 0
 40
2.50000
 50
90.00093
 51
189.99720
  0
LINE
  8
Kontur
 62
   7
 39
0.200
  6
CONTINUOUS
 10
23.03700
 20
93.81600
 30
 0
 11
24.18400
 21
87.31600
  0
ARC
  8
Kontur
 62
   7
 39
0.200
  6
CONTINUOUS
 10
26.64604
 20
87.75000
 30
 0
 40
2.50000
 50
-170.00280
 51
-90.00093
  0
LINE
  8
Kontur
 62
   7
 39
0.200
  6
CONTINUOUS
 10
26.64600
 20
85.25000
 30
 0
 11
39.35400
 21
85.25000
  0
ARC
  8
Kontur
 62
   7
 39
0.200
  6
CONTINUOUS
 10
39.35396
 20
87.75000
 30
 0
 40
2.50000
 50
-89.99907
 51
-9.99720
  0
LINE
  8
Kontur
 62
   7
 39
0.200
  6
CONTINUOUS
 10
41.81600
 20
87.31600
 30
 0
 11
42.96300
 21
93.81600
  0
ARC
  8
Kontur
 62
   7
 39
0.200
  6
CONTINUOUS
 10
40.50096
 20
94.25000
 30
 0
 40
2.50000
 50
-9.99720
 51
89.99907
  0
LINE
  8
Kontur
 62
   7
 39
0.200
  6
CONTINUOUS
 10
40.50100
 20
96.75000
 30
 0
 11
25.49900
 21
96.75000
  0
CIRCLE
  8
Kontur
 62
   7
 39
0.200
  6
CONTINUOUS
 10
45.50000
 20
91.00000
 30
 0
 40
1.60000
  0
CIRCLE
  8
Kontur
 62
   7
 39
0.200
  6
CONTINUOUS
 10
20.50000
 20
91.00000
 30
 0
 40
1.60000
  0
ARC
  8
Kontur
 62
   7
 39
0.200
  6
CONTINUOUS
 10
62.49904
 20
22.25000
 30
 0
 40
2.50000
 50
90.00093
 51
189.99720
  0
LINE
  8
Kontur
 62
   7
 39
0.200
  6
CONTINUOUS
 10
60.03700
 20
21.81600
 30
 0
 11
61.18400
 21
15.31600
  0
ARC
  8
Kontur
 62
   7
 39
0.200
  6
CONTINUOUS
 10
63.64604
 20
15.75000
 30
 0
 40
2.50000
 50
-170.00280
 51
-90.00093
  0
LINE
  8
Kontur
 62
   7
 39
0.200
  6
CONTINUOUS
 10
63.64600
 20
13.25000
 30
 0
 11
76.35400
 21
13.25000
  0
ARC
  8
Kontur
 62
   7
 39
0.200
  6
CONTINUOUS
 10
76.35396
 20
15.75000
 30
 0
 40
2.50000
 50
-89.99907
 51
-9.99720
  0
LINE
  8
Kontur
 62
   7
 39
0.200
  6
CONTINUOUS
 10
78.81600
 20
15.31600
 30
 0
 11
79.96300
 21
21.81600
  0
ARC
  8
Kontur
 62
   7
 39
0.200
  6
CONTINUOUS
 10
77.50096
 20
22.25000
 30
 0
 40
2.50000
 50
-9.99720
 51
89.99907
  0
LINE
  8
Kontur
 62
   7
 39
0.200
  6
CONTINUOUS
 10
77.50100
 20
24.75000
 30
 0
 11
62.49900
 21
24.75000
  0
CIRCLE
  8
Kontur
 62
   7
 39
0.200
  6
CONTINUOUS
 10
82.50000
 20
19.00000
 30
 0
 40
1.60000
  0
CIRCLE
  8
Kontur
 62
   7
 39
0.200
  6
CONTINUOUS
 10
57.50000
 20
19.00000
 30
 0
 40
1.60000
  0
ARC
  8
Kontur
 62
   7
 39
0.200
  6
CONTINUOUS
 10
62.49904
 20
46.25000
 30
 0
 40
2.50000
 50
90.00093
 51
189.99720
  0
LINE
  8
Kontur
 62
   7
 39
0.200
  6
CONTINUOUS
 10
60.03700
 20
45.81600
 30
 0
 11
61.18400
 21
39.31600
  0
ARC
  8
Kontur
 62
   7
 39
0.200
  6
CONTINUOUS
 10
63.64604
 20
39.75000
 30
 0
 40
2.50000
 50
-170.00280
 51
-90.00093
  0
LINE
  8
Kontur
 62
   7
 39
0.200
  6
CONTINUOUS
 10
63.64600
 20
37.25000
 30
 0
 11
76.35400
 21
37.25000
  0
ARC
  8
Kontur
 62
   7
 39
0.200
  6
CONTINUOUS
 10
76.35396
 20
39.75000
 30
 0
 40
2.50000
 50
-89.99907
 51
-9.99720
  0
LINE
  8
Kontur
 62
   7
 39
0.200
  6
CONTINUOUS
 10
78.81600
 20
39.31600
 30
 0
 11
79.96300
 21
45.81600
  0
ARC
  8
Kontur
 62
   7
 39
0.200
  6
CONTINUOUS
 10
77.50096
 20
46.25000
 30
 0
 40
2.50000
 50
-9.99720
 51
89.99907
  0
LINE
  8
Kontur
 62
   7
 39
0.200
  6
CONTINUOUS
 10
77.50100
 20
48.75000
 30
 0
 11
62.49900
 21
48.75000
  0
CIRCLE
  8
Kontur
 62
   7
 39
0.200
  6
CONTINUOUS
 10
82.50000
 20
43.00000
 30
 0
 40
1.60000
  0
CIRCLE
  8
Kontur
 62
   7
 39
0.200
  6
CONTINUOUS
 10
57.50000
 20
43.00000
 30
 0
 40
1.60000
  0
ARC
  8
Kontur
 62
   7
 39
0.200
  6
CONTINUOUS
 10
62.49904
 20
70.25000
 30
 0
 40
2.50000
 50
90.00093
 51
189.99720
  0
LINE
  8
Kontur
 62
   7
 39
0.200
  6
CONTINUOUS
 10
60.03700
 20
69.81600
 30
 0
 11
61.18400
 21
63.31600
  0
ARC
  8
Kontur
 62
   7
 39
0.200
  6
CONTINUOUS
 10
63.64604
 20
63.75000
 30
 0
 40
2.50000
 50
-170.00280
 51
-90.00093
  0
LINE
  8
Kontur
 62
   7
 39
0.200
  6
CONTINUOUS
 10
63.64600
 20
61.25000
 30
 0
 11
76.35400
 21
61.25000
  0
ARC
  8
Kontur
 62
   7
 39
0.200
  6
CONTINUOUS
 10
76.35396
 20
63.75000
 30
 0
 40
2.50000
 50
-89.99907
 51
-9.99720
  0
LINE
  8
Kontur
 62
   7
 39
0.200
  6
CONTINUOUS
 10
78.81600
 20
63.31600
 30
 0
 11
79.96300
 21
69.81600
  0
ARC
  8
Kontur
 62
   7
 39
0.200
  6
CONTINUOUS
 10
77.50096
 20
70.25000
 30
 0
 40
2.50000
 50
-9.99720
 51
89.99907
  0
LINE
  8
Kontur
 62
   7
 39
0.200
  6
CONTINUOUS
 10
77.50100
 20
72.75000
 30
 0
 11
62.49900
 21
72.75000
  0
CIRCLE
  8
Kontur
 62
   7
 39
0.200
  6
CONTINUOUS
 10
82.50000
 20
67.00000
 30
 0
 40
1.60000
  0
CIRCLE
  8
Kontur
 62
   7
 39
0.200
  6
CONTINUOUS
 10
57.50000
 20
67.00000
 30
 0
 40
1.60000
  0
ARC
  8
Kontur
 62
   7
 39
0.200
  6
CONTINUOUS
 10
62.49904
 20
94.25000
 30
 0
 40
2.50000
 50
90.00093
 51
189.99720
  0
LINE
  8
Kontur
 62
   7
 39
0.200
  6
CONTINUOUS
 10
60.03700
 20
93.81600
 30
 0
 11
61.18400
 21
87.31600
  0
ARC
  8
Kontur
 62
   7
 39
0.200
  6
CONTINUOUS
 10
63.64604
 20
87.75000
 30
 0
 40
2.50000
 50
-170.00280
 51
-90.00093
  0
LINE
  8
Kontur
 62
   7
 39
0.200
  6
CONTINUOUS
 10
63.64600
 20
85.25000
 30
 0
 11
76.35400
 21
85.25000
  0
ARC
  8
Kontur
 62
   7
 39
0.200
  6
CONTINUOUS
 10
76.35396
 20
87.75000
 30
 0
 40
2.50000
 50
-89.99907
 51
-9.99720
  0
LINE
  8
Kontur
 62
   7
 39
0.200
  6
CONTINUOUS
 10
78.81600
 20
87.31600
 30
 0
 11
79.96300
 21
93.81600
  0
ARC
  8
Kontur
 62
   7
 39
0.200
  6
CONTINUOUS
 10
77.50096
 20
94.25000
 30
 0
 40
2.50000
 50
-9.99720
 51
89.99907
  0
LINE
  8
Kontur
 62
   7
 39
0.200
  6
CONTINUOUS
 10
77.50100
 20
96.75000
 30
 0
 11
62.49900
 21
96.75000
  0
CIRCLE
  8
Kontur
 62
   7
 39
0.200
  6
CONTINUOUS
 10
82.50000
 20
91.00000
 30
 0
 40
1.60000
  0
CIRCLE
  8
Kontur
 62
   7
 39
0.200
  6
CONTINUOUS
 10
57.50000
 20
91.00000
 30
 0
 40
1.60000
  0
CIRCLE
  8
Kontur
 62
   7
 39
0.200
  6
CONTINUOUS
 10
62.56700
 20
109.12900
 30
 0
 40
1.50000
  0
ARC
  8
Kontur
 62
   7
 39
0.200
  6
CONTINUOUS
 10
5.68293
 20
3.55100
 30
 0
 40
1.19900
 50
449.94888
 51
162.72767
  0
LINE
  8
Kontur
 62
   7
 39
0.200
  6
CONTINUOUS
 10
5.68400
 20
4.75000
 30
 0
 11
9.21600
 21
4.75000
  0
ARC
  8
Kontur
 62
   7
 39
0.200
  6
CONTINUOUS
 10
9.21707
 20
3.55100
 30
 0
 40
1.19900
 50
377.27233
 51
90.05112
  0
ARC
  8
Kontur
 62
   7
 39
0.200
  6
CONTINUOUS
 10
7.44998
 20
3.00000
 30
 0
 40
3.05000
 50
342.69987
 51
17.30013
  0
ARC
  8
Kontur
 62
   7
 39
0.200
  6
CONTINUOUS
 10
9.21707
 20
2.44900
 30
 0
 40
1.19900
 50
269.94888
 51
-17.27233
  0
LINE
  8
Kontur
 62
   7
 39
0.200
  6
CONTINUOUS
 10
9.21600
 20
1.25000
 30
 0
 11
5.68400
 21
1.25000
  0
ARC
  8
Kontur
 62
   7
 39
0.200
  6
CONTINUOUS
 10
5.68293
 20
2.44900
 30
 0
 40
1.19900
 50
197.27233
 51
-89.94888
  0
ARC
  8
Kontur
 62
   7
 39
0.200
  6
CONTINUOUS
 10
7.45002
 20
3.00000
 30
 0
 40
3.05000
 50
162.69987
 51
-162.69987
  0
ARC
  8
Kontur
 62
   7
 39
0.200
  6
CONTINUOUS
 10
5.68293
 20
125.95100
 30
 0
 40
1.19900
 50
449.94888
 51
162.72767
  0
LINE
  8
Kontur
 62
   7
 39
0.200
  6
CONTINUOUS
 10
5.68400
 20
127.15000
 30
 0
 11
9.21600
 21
127.15000
  0
ARC
  8
Kontur
 62
   7
 39
0.200
  6
CONTINUOUS
 10
9.21707
 20
125.95100
 30
 0
 40
1.19900
 50
377.27233
 51
90.05112
  0
ARC
  8
Kontur
 62
   7
 39
0.200
  6
CONTINUOUS
 10
7.44998
 20
125.40000
 30
 0
 40
3.05000
 50
342.69987
 51
17.30013
  0
ARC
  8
Kontur
 62
   7
 39
0.200
  6
CONTINUOUS
 10
9.21707
 20
124.84900
 30
 0
 40
1.19900
 50
269.94888
 51
-17.27233
  0
LINE
  8
Kontur
 62
   7
 39
0.200
  6
CONTINUOUS
 10
9.21600
 20
123.65000
 30
 0
 11
5.68400
 21
123.65000
  0
ARC
  8
Kontur
 62
   7
 39
0.200
  6
CONTINUOUS
 10
5.68293
 20
124.84900
 30
 0
 40
1.19900
 50
197.27233
 51
-89.94888
  0
ARC
  8
Kontur
 62
   7
 39
0.200
  6
CONTINUOUS
 10
7.45002
 20
125.40000
 30
 0
 40
3.05000
 50
162.69987
 51
-162.69987
  0
CIRCLE
  8
Kontur
 62
   7
 39
0.200
  6
CONTINUOUS
 10
7.45000
 20
14.70000
 30
 0
 40
2.50000
  0
CIRCLE
  8
Kontur
 62
   7
 39
0.200
  6
CONTINUOUS
 10
7.45000
 20
14.70000
 30
 0
 40
1.35000
  0
CIRCLE
  8
Kontur
 62
   7
 39
0.200
  6
CONTINUOUS
 10
7.45000
 20
113.70000
 30
 0
 40
2.50000
  0
CIRCLE
  8
Kontur
 62
   7
 39
0.200
  6
CONTINUOUS
 10
7.45000
 20
113.70000
 30
 0
 40
1.35000
  0
ARC
  8
Kontur
 62
   7
 39
0.200
  6
CONTINUOUS
 10
81.88293
 20
3.55100
 30
 0
 40
1.19900
 50
449.94888
 51
162.72767
  0
LINE
  8
Kontur
 62
   7
 39
0.200
  6
CONTINUOUS
 10
81.88400
 20
4.75000
 30
 0
 11
85.41600
 21
4.75000
  0
ARC
  8
Kontur
 62
   7
 39
0.200
  6
CONTINUOUS
 10
85.41707
 20
3.55100
 30
 0
 40
1.19900
 50
377.27233
 51
90.05112
  0
ARC
  8
Kontur
 62
   7
 39
0.200
  6
CONTINUOUS
 10
83.64998
 20
3.00000
 30
 0
 40
3.05000
 50
342.69987
 51
17.30013
  0
ARC
  8
Kontur
 62
   7
 39
0.200
  6
CONTINUOUS
 10
85.41707
 20
2.44900
 30
 0
 40
1.19900
 50
269.94888
 51
-17.27233
  0
LINE
  8
Kontur
 62
   7
 39
0.200
  6
CONTINUOUS
 10
85.41600
 20
1.25000
 30
 0
 11
81.88400
 21
1.25000
  0
ARC
  8
Kontur
 62
   7
 39
0.200
  6
CONTINUOUS
 10
81.88293
 20
2.44900
 30
 0
 40
1.19900
 50
197.27233
 51
-89.94888
  0
ARC
  8
Kontur
 62
   7
 39
0.200
  6
CONTINUOUS
 10
83.65002
 20
3.00000
 30
 0
 40
3.05000
 50
162.69987
 51
-162.69987
  0
ARC
  8
Kontur
 62
   7
 39
0.200
  6
CONTINUOUS
 10
81.88293
 20
125.95100
 30
 0
 40
1.19900
 50
449.94888
 51
162.72767
  0
LINE
  8
Kontur
 62
   7
 39
0.200
  6
CONTINUOUS
 10
81.88400
 20
127.15000
 30
 0
 11
85.41600
 21
127.15000
  0
ARC
  8
Kontur
 62
   7
 39
0.200
  6
CONTINUOUS
 10
85.41707
 20
125.95100
 30
 0
 40
1.19900
 50
377.27233
 51
90.05112
  0
ARC
  8
Kontur
 62
   7
 39
0.200
  6
CONTINUOUS
 10
83.64998
 20
125.40000
 30
 0
 40
3.05000
 50
342.69987
 51
17.30013
  0
ARC
  8
Kontur
 62
   7
 39
0.200
  6
CONTINUOUS
 10
85.41707
 20
124.84900
 30
 0
 40
1.19900
 50
269.94888
 51
-17.27233
  0
LINE
  8
Kontur
 62
   7
 39
0.200
  6
CONTINUOUS
 10
85.41600
 20
123.65000
 30
 0
 11
81.88400
 21
123.65000
  0
ARC
  8
Kontur
 62
   7
 39
0.200
  6
CONTINUOUS
 10
81.88293
 20
124.84900
 30
 0
 40
1.19900
 50
197.27233
 51
-89.94888
  0
ARC
  8
Kontur
 62
   7
 39
0.200
  6
CONTINUOUS
 10
83.65002
 20
125.40000
 30
 0
 40
3.05000
 50
162.69987
 51
-162.69987
  0
ENDSEC
  0
EOF
